Oops, an error
Loading. Please wait.

Noisy Pink Bubbles Tab

version 1
version 1

Whole song

Interactive

2,707 views 1 this week
no commentswrite comment
1 2 3 4 5
x 5
add to favorites
launch autoscroll
font size
0
reset
how to read this tab
guitar tuner
Autoscroll
slow
fast
+/-
esc
set tempo
stop
Help us to improve Ultimate-Guitar.com Take our survey!
×
Author
NOISY PINK BUBBLES

Open C tuning - CGCGCE low to high


INTRO

E-----------------------------------1--|
C-----------------------------------3--|
G--11-9--6--11-9--6--11-9--6--11-9--5--|
C--7--5--2--7--5--2--7--5--2--7--5--1--|
G--7--5--2--7--5--2--7--5--2--7--5--1--|
C--7--5--2--7--5--2--7--5--2--7--5--1--|

VERSE

E--2--------0--------|
C--4--------2--------|
G--6--------4----5---|
C--2--------0----1---|
G--2--------0----1---|
C--2--------0----1---|

BRIDGE

E--0----0-------0----------|
C--6------6-----6----------|
G--5---------5--5----7--5--|
C--4------------4----6--4--|
G--4------------4----5--3--|
C--4------------4----------|


use the picking pattern I will show you further below:
E-------------0----------|
C-------------0----------|
G-------------0----7--5--|
C--4----6--7--7----6--4--|
G--0----0--0--0----5--3--|
C--4----4--4--0----------|


little guitar line in background...

E--7--5--3--2--0--|
C-----------------|
G-----------------|
C-----------------|
G-----------------|
C-----------------|

OUTRO VERSES

E---------------|
C---------------|
G---------------|
C------4-4---4--|
G----0-----0----|
C--4------------|

use that picking pattern for all these shapes

E---------------------|
C---------------------|
G---------------------|
C--4--6--7--9--11--9--| x2 y'all
G--0--0--0--0--0---0--|
C--4--6--7--9--11--9--|

E------------------------------------------|
C------------------------------------------|
G------------------------------------------|
C--7----9----7----9----7----9----7----6----|
G--0----0----0----0----0----0----0----0----|
C--7----9----7----9----7----9----7----6----|

back to the 4th fret one...

E----------------|
C-----4----------|
G--6-------------|
C--4-------7--6--|
G--4-------------|
C--4-------7--6--|
blah you can fiddle with it,
just hold the chord

E--3----0----|
C--3----0----|
G--3----0----|
C--3----0----|
G--3----0----|
C--3----0----|
Suggest correction
comments
print report bad tab
guest
You may want to rate the tab now too:
select rating
Wanna post a correction for this tab? Suggest correction