Oops, an error
Loading. Please wait.

Quiet Riot Tab

5,380 views 9 this week
4 commentsread comments
1 2 3 4 5
accurate
x 5
add to favorites
launch autoscroll
font size
0
reset
how to read this tab
guitar tuner
Autoscroll
slow
fast
+/-
esc
set tempo
stop
Help us to improve Ultimate-Guitar.com Take our survey!
×
Difficulty
intermediate
Artist: Devin Townsend
Song: Quiet Riot (Based on the song "Come feel the noise" by the band, Quiet Riot.)
Tuning: Standard EADGBE

Transcribed by Will Squire

Key: h = hammer on
     p = pull off
     / = slide up (up to the note coming after this symbol)

Note that the verses are acually all the same. Ive just transcribed them several times 
that the tab flows...If you play through all the tab you encounter as you work your way 
the page you will have played the whole song.

INTRO

E:|3-3-3-3-3-3-|
A:|2-2-2-2-2-2-|
D:|0-0-0-0-0-0-|
G:|0-0-0-0-0-0-|
B:|3-3-3-3-3-3-|
E:|3-3-3-3-3-3-| (Play Eight Times)

VERSE 1 PART 1

E:|3-3-3-3-3-3|2-2-2-2-2-2|0-0-0-0-0-0-|
A:|2-2-2-2-2-2|0-0-0-0-0-0|2-2-2-2-2-2-|
D:|0-0-0-0-0-0|0-0-0-0-0-0|2-2-2-2-2-2-|
G:|0-0-0-0-0-0|0-0-0-0-0-0|0-0-0-0-0-0-|
B:|3-3-3-3-3-3|3-3-3-3-3-3|3-3-3-3-3-3-|
E:|3-3-3-3-3-3|3-3-3-3-3-3|3-3-3-3-3-3-| (Play Twice)

VERSE 1 PART 2

E:|x-x-x-x-x-x|x-x-x-x-x-x|x-x-x-x-x-x-|
A:|3-3-3-3-3-3|2-2-2-2-2-2|0-0-0-0-0-0-|
D:|2-2-2-2-2-2|0-0-0-0-0-0|0-0-0-0-0-0-|
G:|0-0-0-0-0-0|0-0-0-0-0-0|2-2-2-2-2-2-|
B:|1-1-1-1-1-1|0-0-0-0-0-0|3-3-3-3-3-3-|
E:|0-0-0-0-0-0|x-x-x-x-x-x|x-x-x-x-x-x-| (Place Twice)

LITTLE COOLDOWN BIT BETWEEN VERSE 1 & 2

E:|3-3-3-3-3-3-|
A:|2-2-2-2-2-2-|
D:|0-0-0-0-0-0-|
G:|0-0-0-0-0-0-|
B:|3-3-3-3-3-3-|
E:|3-3-3-3-3-3-| (Play Four Times)

VERSE 2 PART 1

E:|3-3-3-3-3-3|2-2-2-2-2-2|0-0-0-0-0-0-|
A:|2-2-2-2-2-2|0-0-0-0-0-0|2-2-2-2-2-2-|
D:|0-0-0-0-0-0|0-0-0-0-0-0|2-2-2-2-2-2-|
G:|0-0-0-0-0-0|0-0-0-0-0-0|0-0-0-0-0-0-|
B:|3-3-3-3-3-3|3-3-3-3-3-3|3-3-3-3-3-3-|
E:|3-3-3-3-3-3|3-3-3-3-3-3|3-3-3-3-3-3-| (Play Twice)

VERSE 2 PART 2

E:|x-x-x-x-x-x|x-x-x-x-x-x|x-x-x-x-x-x-|
A:|3-3-3-3-3-3|2-2-2-2-2-2|0-0-0-0-0-0-|
D:|2-2-2-2-2-2|0-0-0-0-0-0|0-0-0-0-0-0-|
G:|0-0-0-0-0-0|0-0-0-0-0-0|2-2-2-2-2-2-|
B:|1-1-1-1-1-1|0-0-0-0-0-0|3-3-3-3-3-3-|
E:|0-0-0-0-0-0|x-x-x-x-x-x|x-x-x-x-x-x-| (Place Twice)

BRIDGE PART 1

E:|0-0-0-0-0-0-|
A:|2-2-2-2-2-2-|
D:|2-2-2-2-2-2-|
G:|0-0-0-0-0-0-|
B:|3-3-3-3-3-3-|
E:|3-3-3-3-3-3-| (Play Eight Times)

BRIDGE PART 2

E:|3---3-|5---5--|
A:|-2-2-2|-4-4-4-|
D:|--0---|--0----|
G:|------|-------|
B:|------|-------|
E:|------|-------| (Play Four Times)

BRIDGE PART 3a
(Not totally sure about this part but it sounds close and in key)

E:|0h2h3|3-3-3|-----|2-2-2|-----|0-0-0|------|------|
A:|-----|0-0-0|5p2p0|0-0-0|5p2p0|2-2-2|------|------|
D:|-----|-----|-----|-----|-----|-----|0h2-/4|0-0-0-|
G:|-----|-----|-----|-----|-----|-----|------|------|
B:|-----|-----|-----|-----|-----|-----|------|------|
E:|-----|-----|-----|-----|-----|-----|------|------| (Play Twice)

BRIDGE PART 3b

E:|-----------|-----------|------------|
A:|3-3-3-3-3-3|2-2-2-2-2-2|0-0-0-0-0-0-|
D:|2-2-2-2-2-2|0-0-0-0-0-0|0-0-0-0-0-0-|
G:|-----------|-----------|------------|
B:|-----------|-----------|------------|
E:|-----------|-----------|------------| (Place Twice)

LITTLE COOLDOWN BIT

E:|3-3-3-3-3-3-|
A:|2-2-2-2-2-2-|
D:|0-0-0-0-0-0-|
G:|0-0-0-0-0-0-|
B:|3-3-3-3-3-3-|
E:|3-3-3-3-3-3-| (Play Four Times)

VERSE 3 PART 1

E:|3-3-3-3-3-3|2-2-2-2-2-2|0-0-0-0-0-0-|
A:|2-2-2-2-2-2|0-0-0-0-0-0|2-2-2-2-2-2-|
D:|0-0-0-0-0-0|0-0-0-0-0-0|2-2-2-2-2-2-|
G:|0-0-0-0-0-0|0-0-0-0-0-0|0-0-0-0-0-0-|
B:|3-3-3-3-3-3|3-3-3-3-3-3|3-3-3-3-3-3-|
E:|3-3-3-3-3-3|3-3-3-3-3-3|3-3-3-3-3-3-| (Play Twice)

VERSE 3 PART 2

E:|x-x-x-x-x-x|x-x-x-x-x-x|x-x-x-x-x-x-|
A:|3-3-3-3-3-3|2-2-2-2-2-2|0-0-0-0-0-0-|
D:|2-2-2-2-2-2|0-0-0-0-0-0|0-0-0-0-0-0-|
G:|0-0-0-0-0-0|0-0-0-0-0-0|2-2-2-2-2-2-|
B:|1-1-1-1-1-1|0-0-0-0-0-0|3-3-3-3-3-3-|
E:|0-0-0-0-0-0|x-x-x-x-x-x|x-x-x-x-x-x-| (Place Twice)

Thats pretty much it! Easy no?

****************************************************************

LYRICS...
I wait for the pain
It always comes again
And I don't know why
And I don't care why anymore

Saved in the end
By a long lost friend
And I don't know why
And I don't care why anymore

And the rain it keeps on coming
And the pain it keeps at bay for another day

Home

So thank you Jean-Michel
I'm on my way to hell
And I don't know why
But I don't care why anymore

***************************************************

Buy devys CDs! www.hevydevy.com
Also check out my site! www.willsquire.com
Eat your dinner!
;)
Suggest correction
comments
print report bad tab
4 comments total. Showing first comments.
0 reply
XDeathBloomsX 10 wrote on June 16 2010, 05:37 pm

Very good tab man. Great job

+4 reply
MegaRon 41 wrote on July 30 2010, 02:43 pm

The fact that it was tabbed "backwards" kind of threw me off, but it was pretty accurate once I figured it out. XD Great job.

+7 reply
travislausch 3,044 wrote on August 26 2010, 02:33 am

I un-backwards-ed the tab:

INTRO

E:|3-3-3-3-3-3-| (Play Eight Times)
B:|3-3-3-3-3-3-|
G:|0-0-0-0-0-0-|
D:|0-0-0-0-0-0-|
A:|2-2-2-2-2-2-|
E:|3-3-3-3-3-3-|

VERSE 1 PART 1

E:|3-3-3-3-3-3|3-3-3-3-3-3|3-3-3-3-3-3-| (Play Twice)
B:|3-3-3-3-3-3|3-3-3-3-3-3|3-3-3-3-3-3-|
G:|0-0-0-0-0-0|0-0-0-0-0-0|0-0-0-0-0-0-|
D:|0-0-0-0-0-0|0-0-0-0-0-0|2-2-2-2-2-2-|
A:|2-2-2-2-2-2|0-0-0-0-0-0|2-2-2-2-2-2-|
E:|3-3-3-3-3-3|2-2-2-2-2-2|0-0-0-0-0-0-|

VERSE 1 PART 2

E:|0-0-0-0-0-0|x-x-x-x-x-x|x-x-x-x-x-x-| (Place Twice)
B:|1-1-1-1-1-1|0-0-0-0-0-0|3-3-3-3-3-3-|
G:|0-0-0-0-0-0|0-0-0-0-0-0|2-2-2-2-2-2-|
D:|2-2-2-2-2-2|0-0-0-0-0-0|0-0-0-0-0-0-|
A:|3-3-3-3-3-3|2-2-2-2-2-2|0-0-0-0-0-0-|
E:|x-x-x-x-x-x|x-x-x-x-x-x|x-x-x-x-x-x-|

LITTLE COOLDOWN BIT BETWEEN VERSE 1 & 2

E:|3-3-3-3-3-3-| (Play Four Times)
B:|3-3-3-3-3-3-|
G:|0-0-0-0-0-0-|
D:|0-0-0-0-0-0-|
A:|2-2-2-2-2-2-|
E:|3-3-3-3-3-3-|

VERSE 2 PART 1

E:|3-3-3-3-3-3|3-3-3-3-3-3|3-3-3-3-3-3-| (Play Twice)
B:|3-3-3-3-3-3|3-3-3-3-3-3|3-3-3-3-3-3-|
G:|0-0-0-0-0-0|0-0-0-0-0-0|0-0-0-0-0-0-|
D:|0-0-0-0-0-0|0-0-0-0-0-0|2-2-2-2-2-2-|
A:|2-2-2-2-2-2|0-0-0-0-0-0|2-2-2-2-2-2-|
E:|3-3-3-3-3-3|2-2-2-2-2-2|0-0-0-0-0-0-|

VERSE 2 PART 2

E:|0-0-0-0-0-0|x-x-x-x-x-x|x-x-x-x-x-x-| (Place Twice)
B:|1-1-1-1-1-1|0-0-0-0-0-0|3-3-3-3-3-3-|
G:|0-0-0-0-0-0|0-0-0-0-0-0|2-2-2-2-2-2-|
D:|2-2-2-2-2-2|0-0-0-0-0-0|0-0-0-0-0-0-|
A:|3-3-3-3-3-3|2-2-2-2-2-2|0-0-0-0-0-0-|
E:|x-x-x-x-x-x|x-x-x-x-x-x|x-x-x-x-x-x-|

BRIDGE PART 1

E:|3-3-3-3-3-3-| (Play Eight Times)
B:|3-3-3-3-3-3-|
G:|0-0-0-0-0-0-|
D:|2-2-2-2-2-2-|
A:|2-2-2-2-2-2-|
E:|0-0-0-0-0-0-|

BRIDGE PART 2

E:|------|-------| (Play Four Times)
B:|------|-------|
G:|------|-------|
D:|--0---|--0----|
A:|-2-2-2|-4-4-4-|
E:|3---3-|5---5--|

BRIDGE PART 3a
(Not totally sure about this part but it sounds close and in key)

E:|-----|-----|-------|-----|-------|-----|------|------| (Play Twice)
B:|-----|-----|-------|-----|-------|-----|------|------|
G:|-----|-----|-------|-----|-------|-----|------|------|
D:|-----|-----|-------|-----|-------|-----|2p0-/4|0---0-|
A:|-----|0-0-0|2h3p2p0|0-0-0|2h3p2p0|2-2-2|------|--2---|
E:|0h2h3|3-3-3|-------|2-2-2|-------|0-0-0|------|------|

BRIDGE PART 3b

E:|-----------|-----------|------------| (Place Twice)
B:|-----------|-----------|------------|
G:|-----------|-----------|------------|
D:|2-2-2-2-2-2|0-0-0-0-0-0|0-0-0-0-0-0-|
A:|3-3-3-3-3-3|2-2-2-2-2-2|0-0-0-0-0-0-|
E:|-----------|-----------|------------|

LITTLE COOLDOWN BIT

E:|3-3-3-3-3-3-| (Play Four Times)
B:|3-3-3-3-3-3-|
G:|0-0-0-0-0-0-|
D:|0-0-0-0-0-0-|
A:|2-2-2-2-2-2-|
E:|3-3-3-3-3-3-|

VERSE 3 PART 1

E:|3-3-3-3-3-3|3-3-3-3-3-3|3-3-3-3-3-3-| (Play Twice)
B:|3-3-3-3-3-3|3-3-3-3-3-3|3-3-3-3-3-3-|
G:|0-0-0-0-0-0|0-0-0-0-0-0|0-0-0-0-0-0-|
D:|0-0-0-0-0-0|0-0-0-0-0-0|2-2-2-2-2-2-|
A:|2-2-2-2-2-2|0-0-0-0-0-0|2-2-2-2-2-2-|
E:|3-3-3-3-3-3|2-2-2-2-2-2|0-0-0-0-0-0-|

VERSE 3 PART 2

E:|0-0-0-0-0-0|x-x-x-x-x-x|x-x-x-x-x-x-| (Place Twice)
B:|1-1-1-1-1-1|0-0-0-0-0-0|3-3-3-3-3-3-|
G:|0-0-0-0-0-0|0-0-0-0-0-0|2-2-2-2-2-2-|
D:|2-2-2-2-2-2|0-0-0-0-0-0|0-0-0-0-0-0-|
A:|3-3-3-3-3-3|2-2-2-2-2-2|0-0-0-0-0-0-|
E:|x-x-x-x-x-x|x-x-x-x-x-x|x-x-x-x-x-x-|


Note that I changed the bridge part 3a to what I think better reflects how the song is actually played:

E:|-----|-----|-------|-----|-------|-----|------|------| (Play Twice)
B:|-----|-----|-------|-----|-------|-----|------|------|
G:|-----|-----|-------|-----|-------|-----|------|------|
D:|-----|-----|-------|-----|-------|-----|2p0-/4|0---0-|
A:|-----|0-0-0|2h3p2p0|0-0-0|2h3p2p0|2-2-2|------|--2---|
E:|0h2h3|3-3-3|-------|2-2-2|-------|0-0-0|------|------|

guest
You may want to rate the tab now too:
select rating
Wanna post a correction for this tab? Suggest correction