Oops, an error
Loading. Please wait.

Slow Me Down Tab

version 1
version 1

Intro

Interactive

3,428 views 3 this week
1 commentread comment
1 2 3 4 5
please rate
add to favorites
launch autoscroll
font size
0
reset
how to read this tab
guitar tuner
Tab Pro tools
  • play this tab
  • loop segment
  • change instrument
  • show fretboard
  • metronome
×
Best way to learn
"Slow Me Down"
Autoscroll
slow
fast
+/-
esc
set tempo
stop
Contributor
Difficulty
novice
(C G C G C E) - Both Guitars


    Q=160 
   4/4 
||---------------------|--------------------| 
||o--------------------|--------------------| 
||--5-5-5-7-7-7-9b10r9-|-5-5-5-7-7-7-9b10r9-| 
||---------------------|--------------------| 
||o--------------------|--------------------| 
||---------------------|--------------------| 


                      1. 
|--------------------|---------------------|| 
|--------------------|--------------------o|| 
|-5-5-5-7-7-7-9b10r9-|-5-5-5-7-7-7-9b10r9--|| 
|--------------------|---------------------|| 
|--------------------|--------------------o|| 
|--------------------|---------------------|| 

Enter Guitar 2
  2. 
|----------------------|------------------|-----------------|-----------------| 
|----------------------|------------------|-----------------|-----------------| 
|-5-5-5-7-7-7-9b10r(9)-|------5-----5-----|-4-4S5-----5-----|-4-4S5-----5-----| 
|----------------------|------------------|-----------------|-----------------| 
|----------------------|------5-----5-----|-4-4S5-----5-----|-4-4S5-----5-----| 
|----------------------|-12\----0-0---0-0-|-------0-0---0-0-|-------0-0---0-0-| 
| 
| Gtr II 
|----------------------|------------------|-----------------|-----------------| 
|----------------------|------------------|-----------------|-----------------| 
|----------------------|------5-----5-----|-4-4S5-----5-----|-4-4S5-----5-----| 
|----------------------|------------------|-----------------|-----------------| 
|----------------------|------5-----5-----|-4-4S5-----5-----|-4-4S5-----5-----| 
|----------------------|-12\----0-0---0-0-|-------0-0---0-0-|-------0-0---0-0-| 


|-----------------|-----------------|-----------------|-----------------| 
|-----------------|-----------------|-----------------|-----------------| 
|-4-4S5-----5-----|-4-4S5-----5-----|-4-4S5-----5-----|-4-4S5-----5-----| 
|-----------------|-----------------|-----------------|-----------------| 
|-4-4S5-----5-----|-4-4S5-----5-----|-4-4S5-----5-----|-4-4S5-----5-----| 
|-------0-0---0-0-|-------0-0---0-0-|-------0-0---0-0-|-------0-0---0-0-| 
| 
| Gtr II 
|-----------------|-----------------|-----------------|-----------------| 
|-----------------|-----------------|-----------------|-----------------| 
|-4-4S5-----5-----|-8-8S9-----9-----|-8-8S9-----9-----|-8-8S9-----9-----| 
|-----------------|-----------------|-----------------|-----------------| 
|-4-4S5-----5-----|-8-8S9-----9-----|-8-8S9-----9-----|-8-8S9-----9-----| 
|-------0-0---0-0-|-------0-0---0-0-|-------0-0---0-0-|-------0-0---0-0-| 


|-----------------|--------------------|---------|-----| 
|-----------------|--------------------|---------|-----| 
|-4-4S5-----5-----|--------------------|---------|-----| 
|-----------------|--------------------|---------|-----| 
|-4-4S5-----5-----|--------------------|---------|-----| 
|-------0-0---0-0-|-[5]b5.5r(5)\-------|---------|-----| 
| 
|-----------------|--------------------|---------|-----| 
|-----------------|--------------------|---------|-----| 
|-8-8S9-----9-----|--------------------|---------|-----| 
|-----------------|--------------------|---------|-----| 
|-8-8S9-----9-----|--------------------|---------|-----| 
|-------0-0---0-0-|-[5]b5.5r(5)\-------|---------|-----| 
(To verse)
comments
We did not receive enough feedback on this tab! Please rate:
print report bad tab
1 2 3 4 5
1 comment total.
0 reply
Magnog wrote on July 13 2011, 11:25 am

should be

5-5-5-7-7-7-/9

I want to post or [tab]
guest
You may want to rate the tab now too:
select rating
Please do not post tabs as comments. Select "correction" instead!