Oops, an error
Loading. Please wait.

Sunshine And Happiness Bass Tab

446 views 1 this week
no commentswrite comment
1 2 3 4 5
please rate
add to favorites
launch autoscroll
font size
0
reset
guitar tuner
Autoscroll
slow
fast
+/-
esc
set tempo
stop
Help us to improve Ultimate-Guitar.com Take our survey!
×
Author
Difficulty
intermediate
G---------------------------------------------------------------------------|
D-------------------------------------------------------------------4-5-4---|
A--0-0000---0-0000---5-5555---5-5555--------------------0-0000---0-0-0-0----|
E-------------------------------------0-0000---0-0000-----------------------|
____________________________________________________________________________
G---------------------------------------------------------------------------|
D-----------------------------4-5-4--------454------------------------------|
A------5-4-2-------5-4-2---0-0-0-0----0--45---7------5-4-2------------------|
E---0-0-0-0-----0-0-0-0-----------------------------0-0-0-0-----------------|
____________________________________________________________________________
G------------------------------------------------7-7-76544-------4-4--457---|
D-----------------4-5-4-------4-5-4----44-55-77---0-0-----224477--4-4-------|
A-------4542---0-0-0-0-----0-0-0-0--55--------------------------------------|
E-0--45---------------------------------------------------------------------|
____________________________________________________________________________
G---------------------------------------------------------------------------|
D---------------------------------------------------------------------------|
A---------------------------------------------------------------------------|
E---5-5555420-0000245-5555555-000000----------------------------------------|
____________________________________________________________________________
G---------------------------------------------------------------------------|
D-------------------------------------------------------------------4-5-4---|
A--0--0000--0--0000--5--5555---5-5555-------------------0-0000---0-0-0-0----|
E-------------------------------------0--0000--0-0000-----------------------|
____________________________________________________________________________
G---------------------------------------------------------------------------|
D---------------------------------------------------------------------------|
A-0-000000---4-444444---5-555555---6-666666---------------------------------|
E---------------------------------------------------------------------------|
____________________________________________________________________________
G---------------------------------------------------------------------------|
D---------------------------------------------------------------------------|
A---------------------------------------------------------------------------|
E--5-5555420-0000245-5555555---000000---------------------------------------|
____________________________________________________________________________
G---------------------------------------------------------------------------|
D-----------------------------4-5-4--------454------------------------------|
A------5-4-2-------5-4-2---0-0-0-0----0--45---7------5-4-2------------------|
E---0-0-0-0-----0-0-0-0---------------------------0-0-0-0-------------------|
____________________________________________________________________________
G------------------------------------------------7-7-76544-------4-4--457---|
D-----------------4-5-4-------4-5-4----44-55-77---0-0-----224477--4-4-------|
A-------4542---0-0-0-0-----0-0-0-0--55--------------------------------------|
E-0--45---------------------------------------------------------------------|
____________________________________________________________________________
G---------------------------------------------------------------------------|
D---------------------------------------------------------------------------|
A------------------------------------------------------0-00000000000000-----|
E--5-5555420-0000245-5555555--555555--0-00000000000000----------------------|
____________________________________________________________________________
G---------------------------------------------------------------------------|
D----------------------------------------0-00000-0000000--1-11111111111-----|
A--------------------0-00000000000000-2-4-------4-------4-------------------|
E--0-00000000000000---------------------------------------------------------|
____________________________________________________________________________
G---------------------------------------------------------------------------|
D---------------------------------------------------------------------------|
A---------------------------------------------------------------------------|
E-5-5555420-0000245-5555555--000000---5-5555420-0000245-5555555-000000------|
____________________________________________________________________________
G---------------------------------------------------------------------------|
D---------------------------------------------------------------------------|
A-------------------------------4454----------------------------------------|
E--5-5555421-1111111--00000000----------------------------------------------|
____________________________________________________________________________
Suggest correction
Give kudos to tab author, rate the tab!
1 2 3 4 5
comments
print report bad tab
guest
You may want to rate the tab now too:
select rating
Wanna post a correction for this tab? Suggest correction