Oops, an error
Loading. Please wait.

War tab

version 2
version 2

Whole song

  • This tab is based on the studio version of War, by... Show more
313 views 1 this week
no commentswrite comment
1 2 3 4 5
2 more votes to show rating
add to favorites
×
Save as Personal and add changes to this tab that will be seen only by you. Learn more ›
×
You can save this tab as Personal to edit and correct it or add notes. All changes will be seen only by you. Learn more »
launch autoscroll
font size
0
reset
how to read this tab
guitar tuner
edit
Autoscroll
slow
fast
+/-
esc
set tempo
stop
About this tab version
This tab is based on the studio version of War, by Devin Townsend, from the Infinity record. Aside from the main riff and the solo at the end, the song relies almost exclusively on octaves and bar chords in open C. Was this info helpful? Yes No
[Intro]
e|---------------------------------|--------------------------|--------------------------|
C|---------------------------------|--------------------------|--------------------------|
G|---------------------------------|--------------------------|--------------------------|
C|---------------------------------|--------------------------|--------------------------|
G|-----------5~~~0--0--0--0--0--0--|--0--0--0--0--0--0--0--0--|--0--0--0--0--0--0--0--0--|
C|--5--5--7------0--0--0--0--0--0--|--0--0--0--0--0--0--0--0--|--0--0--0--0--0--0--0--0--|

e|--------------------------|--------------------------|--------------------------|--------------------------|
C|--------------------------|--------------------------|--------------------------|--------------------------|
G|--------------------------|--------------------------|--------------------------|--------------------------|
C|--------------------------|--------------------------|--------------------------|--------------------------|
G|--0--0--0--0--0--0--0--0--|--0--0--0--0--0--0--0--0--|--0--0--0--0--0--0--0--0--|--0--0--0--0--0--0--0--0--|
C|--0--0--0--0--0--0--0--0--|--0--0--0--0--0--0--0--0--|--0--0--0--0--0--0--0--0--|--0--0--0--0--0--0--0--0--|

e|--------------------------|--------------------------|--------------------------|--------------------------|
C|--------------------------|--------------------------|--------------------------|--------------------------|
G|--------------------------|--------------------------|--------------------------|--------------------------|
C|--------------------------|--------------------------|--------------------------|--------------------------|
G|--0--0--0--0--0--0--0--0--|--0--0--0--0--0--0--0--0--|--0--0--0--0--0--0--0--0--|--0--0--0--0--0--0--0--0--|
C|--0--0--0--0--0--0--0--0--|--0--0--0--0--0--0--0--0--|--0--0--0--0--0--0--0--0--|--0--0--0--0--0--0--0--0--|

e|--------------------------|--------------------------|--------------------------|--------------------------|
C|--------------------------|--------------------------|--------------------------|--------------------------|
G|--------------------------|--------------------------|--------------------------|--------------------------|
C|--------------------------|--------------------------|--------------------------|--------------------------|
G|--0--0--0--0--0--0--0--0--|--0--0--0--0--0--0--0--0--|--0--0--0--0--0--0--0--0--|--0--0--0--0--0--0--0--0--|
C|--0--0--0--0--0--0--0--0--|--0--0--0--0--0--0--0--0--|--0--0--0--0--0--0--0--0--|--0--0--0--0--0--0--0--0--|

e|--------------------------|--------------------------|--------------------------|--------------------------|
C|--------------------------|--------------------------|--------------------------|--------------------------|
G|--------------------------|--3-----------------------|--3-----------------------|--3-----------5-----------|
C|--------------------------|-(5)----------------------|-(5)----------------------|-(5)---------(7)----------|
G|--0--0--0--0--0--0--0--0--|--3--0--0--0--0--0--0--0--|--3--0--0--0--0--0--0--0--|--3--0--0--0--5--0--0--0--|
C|--0--0--0--0--0--0--0--0--|-----0--0--0--0--0--0--0--|-----0--0--0--0--0--0--0--|-----0--0--0-----0--0--0--|

e|--------------------------|--------------------------|--------------------------|--------------------------|
C|--------------------------|--------------------------|--------------------------|--------------------------|
G|--3-----------------------|--3-----5-----------------|--3-----5-----------------|--3-----------5-----------|
C|-(5)----------------------|-(5)---(7)----------------|-(5)---(7)----------------|-(5)---------(7)----------|
G|--3--0--0--0--0--0--0--0--|--3--0--5--0--0--0--0--0--|--3--0--5--0--0--0--0--0--|--3--0--0--0--5--0--0--0--|
C|-----0--0--0--0--0--0--0--|-----0-----0--0--0--0--0--|-----0-----0--0--0--0--0--|-----0--0--0-----0--0--0--|

e|--------------------------|--------------------------|--------------------------|--------------------------|
C|--------------------------|--------------------------|--------------------------|--------------------------|
G|--3-----------------------|--5-----------------------|--5-----------------------|--6-----------6-----------|
C|-(5)----------------------|-(7)----------------------|-(7)----------------------|-(8)---------(8)----------|
G|--3--0--0--0--0--0--0--0--|--5--0--0--0--0--0--0--0--|--5--0--0--0--0--0--0--0--|--6--0--0--0--6--0--0--0--|
C|-----0--0--0--0--0--0--0--|-----0--0--0--0--0--0--0--|-----0--0--0--0--0--0--0--|-----0--0--0-----0--0--0--|

e|--------------------------|--------------------------|--------------------------|--------------------------|
C|--------------------------|--------------------------|--------------------------|--------------------------|
G|--5-----------------------|--5-----------------------|--5-----------------------|--6-----------6-----------|
C|-(7)----------------------|-(7)----------------------|-(7)----------------------|-(8)---------(8)----------|
G|--5--0--0--0--0--0--0--0--|--5--0--0--0--0--0--0--0--|--5--0--0--0--0--0--0--0--|--6--0--0--0--6--0--0--0--|
C|-----0--0--0--0--0--0--0--|-----0--0--0--0--0--0--0--|-----0--0--0--0--0--0--0--|-----0--0--0-----0--0--0--|

e|--------------------------|--------------------------|--------------------------|--------------------------|
C|--------------------------|--------------------------|--------------------------|--------------------------|
G|--5-----------------------|--2-----------------------|--2-----------------------|--5-----------3-----------|
C|-(7)----------------------|-(4)----------------------|-(4)----------------------|-(7)---------(5)----------|
G|--5--0--0--0--0--0--0--0--|--2--5--5--5--5--5--5--5--|--2--5--5--5--5--5--5--5--|--5--5--5--5--3--5--5--5--|
C|-----0--0--0--0--0--0--0--|-----5--5--5--5--5--5--5--|-----5--5--5--5--5--5--5--|-----5--5--5-----5--5--5--|

e|--------------------------|--------------------------|--------------------------|--------------------------|
C|--------------------------|--------------------------|--------------------------|--------------------------|
G|--2-----------------------|--5-----------------------|--2-----------------------|--5-----------3-----------|
C|-(4)----------------------|-(7)----------------------|-(4)----------------------|-(7)---------(5)----------|
G|--2--5--5--5--5--5--5--5--|--5--5--5--5--5--5--5--5--|--2--5--5--5--5--5--5--5--|--5--5--5--5--3--5--5--5--|
C|-----5--5--5--5--5--5--5--|-----5--5--5--5--5--5--5--|-----5--5--5--5--5--5--5--|-----5--5--5-----5--5--5--|

e|--------------------------|--------------------------|--------------------------|--------------------------|
C|--------------------------|--------------------------|--------------------------|--------------------------|
G|--2--------2-----3-----4--|--5+----------------------|--5-----------------------|--6-----------6-----------|
C|-(4)------(4)---(5)---(6)-|-(7)+---------------------|-(7)----------------------|-(8)---------(8)----------|
G|--2--5--5--2--5--3--5--4--|--5+-0--0--0--0--0--0--0--|--5--0--0--0--0--0--0--0--|--6--0--0--0--6--0--0--0--|
C|-----5--5-----5-----5-----|-----0--0--0--0--0--0--0--|-----0--0--0--0--0--0--0--|-----0--0--0-----0--0--0--|

e|--------------------------|--------------------------|--------------------------|--------------------------|
C|--------------------------|--------------------------|--------------------------|--------------------------|
G|--5-----------------------|--3-----------2-----------|--0-----------2-----------|--3-----------2-----------|
C|-(7)----------------------|-(5)---------(4)----------|-(2)---------(4)----------|-(5)---------(4)----------|
G|--5--0--0--0--0--0--0--0--|--3-----------2-----------|--0-----------2-----------|--3-----------2-----------|
C|-----0--0--0--0--0--0--0--|--------------------------|--------------------------|--------------------------|
                            
e|--------------------------|
C|--------------------------|
G|--5-5-5-5-5-5-5-5-5-------|
C|--7-7-7-7-7-7-7-7-7-------|
G|--5-5-5-5-5-5-5-5-5-------|
C|--------------------5--7h-|

[Verse]
e|--------------------------|--------------------------|--------------------------|--------------------------|
C|--------------------------|--------------------------|--------------------------|--------------------------|
G|--------------------------|--------------------------|--------------------------|--------------------------|
C|--------------------------|--------------------------|--------------------------|--------------------------|
G|--5~~0--0--0--0--0--------|--5~~0--0--0--0--0--------|--6~~--------6~~---6--8h--|--5--0--0--0--0--0--------|
C|-----0--0--0--0--0--5--7h-|-----0--0--0--0--0--5--7h-|-------5--7h--------------|-----0--0--0--0--0--5--7h-|

e|--------------------------|--------------------------|--------------------------|--------------------------|
C|--------------------------|--------------------------|--------------------------|--------------------------|
G|--------------------------|--------------------------|--------------------------|--------------------------|
C|--------------------------|--------------------------|--------------------------|--------------------------|
G|--5~~0--0--0--0--0--------|--5~~0--0--0--0--0--------|--6~~--------6~~---6--8h--|--5--0--0--0--0--0--------|
C|-----0--0--0--0--0--5--7h-|-----0--0--0--0--0--5--7h-|-------5--7h--------------|-----0--0--0--0--0--5--7h-|

e|--------------------------|--------------------------|--------------------------|--------------------------|
C|--------------------------|--------------------------|--------------------------|--------------------------|
G|--------------------------|--------------------------|--------------------------|--------------------------|
C|--------------------------|--------------------------|--------------------------|--------------------------|
G|--5~~0--0--0--0--0--------|--5~~0--0--0--0--0--------|--6~~--------6~~---6--8h--|--5--0--0--0--0--0--------|
C|-----0--0--0--0--0--5--7h-|-----0--0--0--0--0--5--7h-|-------5--7h--------------|-----0--0--0--0--0--5--7h-|

e|--------------------------|--------------------------|--------------------------|--------------------------|
C|--------------------------|--------------------------|--------------------------|--------------------------|
G|--------------------------|--------------------------|--------------------------|--------------------------|
C|--------------------------|--------------------------|--------------------------|--------------------------|
G|--5~~0--0--0--0--0--------|--5~~0--0--0--0--0--------|--6~~--------6~~---6--8h--|--5--0--0--0--0--0--------|
C|-----0--0--0--0--0--5--7h-|-----0--0--0--0--0--5--7h-|-------5--7h--------------|-----0--0--0--0--0--5--7h-|

e|--------------------------|--------------------------|--------------------------|--------------------------|
C|--------------------------|--------------------------|--------------------------|--------------------------|
G|--------------------------|--------------------------|--------------------------|--------------------------|
C|--------------------------|--------------------------|--------------------------|--------------------------|
G|--2~~5--5--5--5--5--------|--2~~5--5--5--5--5--------|--5~~--------3------------|--2--5--5--5--5--5--------|
C|-----5--5--5--5--5--5--7h-|-----5--5--5--5--5--5--7h-|-------5--7h-------5--7---|-----5--5--5--5--5--5--7h-|

e|--------------------------|--------------------------|--------------------------|--------------------------|
C|--------------------------|--------------------------|--------------------------|--------------------------|
G|--------------------------|--------------------------|--------------------------|--------2-----3-----4--5+-|
C|--------------------------|--------------------------|--------------------------|-------(4)---(5)---(6)(7)+|
G|--5~~5--5--5--5--5--------|--2~~5--5--5--5--5--------|--5~~--------3------------|--2--5--2--5--3--5--4--5+-|
C|-----5--5--5--5--5--5--7h-|-----5--5--5--5--5--5--7h-|-------5--7h-------5--7---|-----5-----5-----5--------|

e|--------------------------|--------------------------|--------------------------|--------------------------|
C|--------------------------|--------------------------|--------------------------|--------------------------|
G|--------------------------|--------------------------|--------------------------|--------------------------|
C|--------------------------|--------------------------|--------------------------|--------------------------|
G|--0--0--0--0--0--0--------|--5~~0--0--0--0--0--------|--6~~--------6~~---6--8h--|--5--0--0--0--0--0--0--0--|
C|--0--0--0--0--0--0--5--7h-|-----0--0--0--0--0--5--7h-|-------5--7h--------------|-----0--0--0--0--0--0--0--|

[rest for four bars, and come in on the fourth bar as follows]
e|--------------------------|--------------------------|--------------------------|--------------------------|
C|--------------------------|--------------------------|--------------------------|--------------------------|
G|--------------------------|--------------------------|--------------------------|--------------------------|
C|--------------------------|--------------------------|--------------------------|--------------------------|
G|--------------------------|--------------------------|--------------------------|-----------------------5~~|
C|--------------------------|--------------------------|--------------------------|---------------5--5--7h---|

[Verse 2]
e|--------------------------|--------------------------|--------------------------|--------------------------|
C|--------------------------|--------------------------|--------------------------|--------------------------|
G|--------------------------|--------------------------|--------------------------|--------------------------|
C|--------------------------|--------------------------|--------------------------|--------------------------|
G|--5~~0--0--0--0--0--------|--5~~0--0--0--0--0--------|--6~~--------6~~---6--8h--|--5--0--0--0--0--0--------|
C|-----0--0--0--0--0--5--7h-|-----0--0--0--0--0--5--7h-|-------5--7h--------------|-----0--0--0--0--0--5--7h-|

e|--------------------------|--------------------------|--------------------------|--------------------------|
C|--------------------------|--------------------------|--------------------------|--------------------------|
G|--------------------------|--------------------------|--------------------------|--------------------------|
C|--------------------------|--------------------------|--------------------------|--------------------------|
G|--5~~0--0--0--0--0--------|--5~~0--0--0--0--0--------|--6~~--------6~~---6--8h--|--5--0--0--0--0--0--------|
C|-----0--0--0--0--0--5--7h-|-----0--0--0--0--0--5--7h-|-------5--7h--------------|-----0--0--0--0--0--5--7h-|

e|--------------------------|--------------------------|--------------------------|--------------------------|
C|--------------------------|--------------------------|--------------------------|--------------------------|
G|--------------------------|--------------------------|--------------------------|--------------------------|
C|--------------------------|--------------------------|--------------------------|--------------------------|
G|--2~~5--5--5--5--5--------|--2~~5--5--5--5--5--------|--5~~--------3------------|--2--5--5--5--5--5--------|
C|-----5--5--5--5--5--5--7h-|-----5--5--5--5--5--5--7h-|-------5--7h-------5--7---|-----5--5--5--5--5--5--7h-|

e|--------------------------|--------------------------|--------------------------|--------------------------|
C|--------------------------|--------------------------|--------------------------|--------------------------|
G|--------------------------|--------------------------|--------------------------|--------2-----3-----4--5+-|
C|--------------------------|--------------------------|--------------------------|-------(4)---(5)---(6)(7)+|
G|--5~~5--5--5--5--5--------|--2~~5--5--5--5--5--------|--5~~--------3------------|--2--5--2--5--3--5--4--5+-|
C|-----5--5--5--5--5--5--7h-|-----5--5--5--5--5--5--7h-|-------5--7h-------5--7---|-----5-----5-----5--------|

e|--------------------------|--------------------------|--------------------------|--------------------------|
C|--------------------------|--------------------------|--------------------------|--------------------------|
G|--------------------------|--------------------------|--------------------------|--------------------------|
C|--------------------------|--------------------------|--------------------------|--8--8pm--8----10pm10--11-|
G|-----0--0--5~~0--5~~0--0--|--0--0--0--0--0--0--------|--5~~0--0--0--0--0--0--0--|--8--8pm--8----10pm10--11-|
C|-----0--0-----0-----0--0--|--0--0--0--0--0--0--5--7h-|-----0--0--0--0--0--0--0--|--8--8pm--8----10pm10--11-|

[Bridge]
e|--------------------------|--------------------------|--------------------------|--------------------------|
C|--------------------------|--------------------------|--------------------------|--------------------------|
G|--------------------------|--------------------------|--------------------------|--------------------------|
C|--7--7--7--7--7--7--7--7--|--5--5--5--5--5--5--5--5--|--7--7--7--7--7--7--7--7--|--5--5--5--5--5--5--5--5--|
G|--7--7--7--7--7--7--7--7--|--5--5--5--5--5--5--5--5--|--7--7--7--7--7--7--7--7--|--5--5--5--5--5--5--5--5--|
C|--7--7--7--7--7--7--7--7--|--5--5--5--5--5--5--5--5--|--7--7--7--7--7--7--7--7--|--5--5--5--5--5--5--5--5--|

e|--------------------------|--------------------------|--------------------------|--------------------------|
C|--------------------------|--------------------------|--------------------------|--------------------------|
G|--------------------------|--------------------------|--------------------------|--------------------------|
C|--7--7--7--7--7--7--7--7--|--5--5--5--5--5--5--5--5--|---3--3--3--3--3--3--3----|-----2--------------2-----|
G|--7--7--7--7--7--7--7--7--|--5--5--5--5--5--5--5--5--|---3--3--3--3--3--3--3----|-----2--------------2-----|
C|--7--7--7--7--7--7--7--7--|--5--5--5--5--5--5--5--5--|---3--3--3--3--3--3--3----|-----2--------------2-----|

[Chorus]
e|--------------------------|--------------------------|--------------------------|--------------------------|
C|--------------------------|--------------------------|--------------------------|--------------------------|
G|--------2-----------4-----|--------2-----------4-----|--------2-----------4-----|--------2-----------4-----|
C|--2--6-----6--4--8-----8--|--2--6-----6--4--8-----8--|--2--6-----6--4--8-----8--|--2--6-----6--4--8-----8--|
G|--------2-----------4-----|--------2-----------4-----|--------2-----------4-----|--------2-----------4-----|
C|--2--6-----6--4--8-----8--|--2--6-----6--4--8-----8--|--2--6-----6--4--8-----8--|--2--6-----6--4--8-----8--|

e|--------------------------|--------------------------|--------------------------|--------------------------|
C|--------------------------|--------------------------|--------------------------|--------------------------|
G|--------4-----------------|--------4-----------------|--------4-----------------|--------4-----------------|
C|--4--8-----8--2--6--2--6--|--4--8-----8--2--6--2--6--|--4--8-----8--2--6--2--6--|--4--8-----8--2--6--2--6--|
G|--------4-----2--6--2--6--|--------4-----2--6--2--6--|--------4-----2--6--2--6--|--------4-----2--6--2--6--|
C|--4--8-----8--2--6--2--6--|--4--8-----8--2--6--2--6--|--4--8-----8--2--6--2--6--|--4--8-----8--2--6--2--6--|

e|--------------------------|--------------------------|--------------------------|--------------------------|
C|--------------------------|--------------------------|--------------------------|--------------------------|
G|--------2-----------4-----|--------2-----------4-----|--------------------------|--------------------------|
C|--2--6-----6--4--8-----8--|--2--6-----6--4--8-----8--|--8-8-8-8-8-8-8-8-8-8-8-8-|--8-8-8-8-8-8-8-8-8-8-8-7-|
G|--------2-----------4-----|--------2-----------4-----|--8-8-8-8-8-8-8-8-8-8-8-8-|--8-8-8-8-8-8-8-8-8-8-8-7-|
C|--2--6-----6--4--8-----8--|--2--6-----6--4--8-----8--|--8-8-8-8-8-8-8-8-8-8-8-8-|--8-8-8-8-8-8-8-8-8-8-8-7-|
[Outro]
e|--------------------------|--------------------------|--------------------------|--------------------------|
C|--------------------------|--------------------------|--------------------------|--------------------------|
G|--------2-2-----------2-2-|----------2-2-------2---2-|--------2-2-----------2-2-|----------2-2-------2---2-|
C|----3---------1---3-------|--1---3-------1---3-------|----3---------1-1-3-------|--1-1-3-------1-1-3-------|
G|----3---2-2---1---3---2-2-|--1---3---2-2-1---3-2---2-|----3---2-2---1-1-3---2-2-|--1-1-3---2-2-1-1-3-2---2-|
C|----3---------1---3-------|--1---3-------1---3---4b--|----3---------1-1-3-------|--1-1-3-------1-1-3---4b--|

e|--------------------------|--------------------------|--------------------------|--------------------------|
C|--------------------------|--------------------------|--------------------------|--------------------------|
G|--------2-2-----------2-2-|----------2-2-------2---2-|--------2-2-----------2-2-|----------2-2-------2---2-|
C|----3---------1-1-3-------|--1-1-3-------1-1-3-------|----3---------1-1-3-------|--1-1-3-------1-1-3-------|
G|----3---2-2---1-1-3---2-2-|--1-1-3---2-2-1-1-3-2---2-|----3---2-2---1-1-3---2-2-|--1-1-3---2-2-1-1-3-2---2-|
C|----3---------1-1-3-------|--1-1-3-------1-1-3---4b--|----3---------1-1-3-------|--1-1-3-------1-1-3---4b--|

e|--------------------------|--------------------------|--------------------------|--------------------------|
C|--------------------------|--------------------------|--------------------------|--------------------------|
G|--------2-2-----------2-2-|----------2-2-------2-----|-------5-5-------5-5-5b---|-----5-----5-----5-----5--|
C|----3---------1-1-3-------|--1-1-3-------1-1-3---3-4-|-5-6-------4-4-6----------|--6-----6-----6-----6-----|
G|----3---2-2---1-1-3---2-2-|--1-1-3---2-2-1-1-3-2-3-4-|-5-6---5-5-4-4-6-5-5-5b---|--6--5--6--5--6--5--6--5--|
C|----3---------1-1-3-------|--1-1-3-------1-1-3---3-4-|-5-6-------4-4-6----------|--6-----6-----6-----6-----|

e|--------------------------|--------------------------|--------------------------|--------------------------|
C|--------------------------|--------------------------|--------------------------|--------------------------|
G|--2-----2-2--------2---2--|---------2-2--------2-----|-------5-5-------5-5-5b---|-----5-----5-----5-----5--|
C|-----3-------1-1-3--------|-----3--------1-1-3---3-4-|-5-6-------4-4-6----------|--6-----6-----6-----6-----|
G|--2--3--2-2--1-1-3-2---2--|-----3---2-2--1-1-3-2-3-4-|-5-6---5-5-4-4-6-5-5-5b---|--6--5--6--5--6--5--6--5--|
C|-----3-------1-1-3---4b---|-----3--------1-1-3---3-4-|-5-6-------4-4-6----------|--6-----6-----6-----6-----|

e|--------------------------|--------------------------|--------------------------|--------------------------|
C|--------------------------|--------------------------|--------------------------|--------------------------|
G|--2-----2-2--------2---2--|---------2-2--------2-----|-------5-5-------5-5-5b---|-----5-----5-----5-----5--|
C|-----3-------1-1-3--------|-----3--------1-1-3---3-4-|-5-6-------4-4-6----------|--6-----6-----6-----6-----|
G|--2--3--2-2--1-1-3-2---2--|-----3---2-2--1-1-3-2-3-4-|-5-6---5-5-4-4-6-5-5-5b---|--6--5--6--5--6--5--6--5--|
C|-----3-------1-1-3---4b---|-----3--------1-1-3---3-4-|-5-6-------4-4-6----------|--6-----6-----6-----6-----|

e|--------------------------|--------------------------|--------------------------|--------------------------|
C|--------------------------|--------------------------|--------------------------|--------------------------|
G|--2-----2-2--------2---2--|---------2-2--------2-----|-------5-5-------5-5-5b---|-----5-----5-----5-----5--|
C|-----3-------1-1-3--------|-----3--------1-1-3---3-4-|-5-6-------4-4-6----------|--6-----6-----6-----6-----|
G|--2--3--2-2--1-1-3-2---2--|-----3---2-2--1-1-3-2-3-4-|-5-6---5-5-4-4-6-5-5-5b---|--6--5--6--5--6--5--6--5--|
C|-----3-------1-1-3---4b---|-----3--------1-1-3---3-4-|-5-6-------4-4-6----------|--6-----6-----6-----6-----|

e|--------------------------|--------------------------|--------------------------|
C|--------------------------|--------------------------|--------------------------|
G|-----5-----5-----5-----5--|-----5-----5-----5-----5--|-----5-----5--------------|
C|--6-----6-----6-----6-----|--6-----6-----6-----6-----|--6-----6-----6--6--6--6--|
G|--6--5--6--5--6--5--6--5--|--6--5--6--5--6--5--6--5--|--6--5--6--5--6--6--6--6--|
C|--6-----6-----6-----6-----|--6-----6-----6-----6-----|--6-----6-----6--6--6--6--|

[Solo]
e|--------------------------|--------------------------|---------------8-8---8-10-|---10-12---12-10---10-8---|
C|-7---5-7/9---5-5--4-5-5/7-|-0-0----0-7---5-7-7/9-5-5-|-4-5-7---0-0-------5------|-5-------5-------5------5-|
G|--------------------------|--------------------------|--------------------------|--------------------------|
C|--------------------------|--------------------------|--------------------------|--------------------------|
G|--------------------------|--------------------------|--------------------------|--------------------------|
C|--------------------------|--------------------------|--------------------------|--------------------------|

e|-8-8---8-6----------6-----|-----6--------------------|--------------------------|--------------------------|
C|-----4-----2----2-4---2-4-|-2-4---4-2--2-------------|--------------------------|--------------------------|
G|--------------------------|--------------3-----------|--------------------------|--------------------------|
C|--------------------------|--------------------------|--------------------------|--------------------------|
G|--------------------------|--------------------------|--------------------------|--------------------------|
C|--------------------------|--------------------------|--------------------------|--------------------------|


************************************

| ()  Ghost note
| h   Hammer-on
| b   Bend
| /   Slide up
| ~   Vibrato
| PM  Palm mute

************************************
Suggest correction
Creating personal tab
Creating personal tab
You can edit any tab online and save it as your Personal.

You can edit, replace or remove any tab part or add personal notes – all changes will be seen only by you.

Personal tabs can be accessed anytime from any device, even offline.
Learn more »
Give kudos to tab author, rate the tab!
1 2 3 4 5
comments
print report bad tab
guest
You may want to rate the tab now too:
select rating
Wanna post a correction for this tab? Suggest correction