Oops, an error
Loading. Please wait.

Truth guitar pro

186 views 6 this week
4 commentsread comments
1 2 3 4 5
2 more votes to show rating
add to favorites
guitar tuner
Autoscroll
slow
fast
+/-
esc
set tempo
stop
"Truth"
demo version
Play now

or get full version for Free

×
Get full version now!
Learn and play this song
in Tab Pro
Try for free

or get $10 off Welcome Bonus

Get welcome bonus
Get access to Tab Pro version of “Truth”!
Tab Pro is a premium guitar tab service, available on PC, Mac, iOS and Android
TRY FOR FREE
Your download will start in 7 seconds
×
Like this song? We have more! Follow us on Facebook for daily tips, lessons and other guitar-related content.
To download “Truth” Guitar Pro tab click button below
Please note that you must have Guitar Pro software installed on your
computer in order to view this file.
Suggest correction
Give kudos to tab author, rate the tab!
1 2 3 4 5
comments
report bad tab
4 comments total. Showing first comments.
0 reply
theoctavarian 42 Sep 14, 2015 06:02 PM

Tell me what you guys think! :)

-2 reply
Eryth 174 Sep 24, 2015 09:10 AM

I play the arpeggios from bar 45-60 like this:

----------------------------------|
----------------------------------|
--0-4-----0-----------------------|
-------6----4--6-----4--0-------0-|
------------------7-------7--4----|
----------------------------------|

----------------------------------|----------------------------------|
----------------------------------|----------------------------------|
----------------------------------|--0-4-----0-----------------------|
--------------------------------0-|-------6----4--6-----4--0-------0-|
--0-4-----0----------------0-4----|------------------7-------7--4----|
-------6----4--6--0--4--6---------|----------------------------------|

----------------------------------|--------------------------------------|
----------------------------------|--------------------------------------|
----------------------------------|--0--3-----0--------------------------|
--------------------------------0-|--------5-----3--5--3--5-----3--------|
--0-4-----0----------------0-4----|--------------------------5-----3--5--|
-------6----4--6--0--4--6---------|--------------------------------------|

--------------------------------------|--------------------------------------|
--------------------------------------|--------------------------------------|
--------------------------------------|--0--3-----0--------------------------|
--------------------------------------|--------5-----3--5--3--5-----3--------|
--3--5--0--3-----0-----------0--3--5--|--------------------------5-----3--5--|
--------------5-----0--3--5-----------|--------------------------------------|

--------------------------------------
--------------------------------------
--------------------------------------
--------------------------------------
--3--5--0--3-----0-----------0--3--5--
--------------5-----0--3--5-----------

+1 reply
theoctavarian 42 Sep 27, 2015 09:18 AM

That's close, but I got mine from meticulously following him play that bit. I tried to learn it by ear, but I got it wrong too. I took about half an hour studying this video at 50% speed to make sure I got every note in that part correctly.

https://www.youtube.com/watch?v=xLb7sj8ErS0

guest
You may want to rate the tab now too:
select rating