Oops, an error
Loading. Please wait.

Secret Sciences Guitar Pro

868 views 9 this week
2 commentsread comments
1 2 3 4 5
x 6
add to favorites
×
Save as Personal and add changes to this tab that will be seen only by you. Learn more ›
guitar tuner
Autoscroll
slow
fast
+/-
esc
set tempo
stop
Author
Difficulty
Tuning
Filesize
Instruments
intermediate
B E A D F# B
100 Kb
rhythm guitar #1, rhythm guitar #2, rhythm guitar #3, lead guitar, bass, percussion
"Secret Sciences"
demo version
Play now

or get full version for Free

×
Get full version now!
Learn and play this song
in Tab Pro
Try for free

or get $10 off Welcome Bonus

Get welcome bonus
Get access to Tab Pro version of “Secret Sciences”!
Tab Pro is a premium guitar tab service, available on PC, Mac, iOS and Android
TRY FOR FREE
Your download will start in 7 seconds
×
Like this song? We have more! Follow us on Facebook for daily tips, lessons and other guitar-related content.
To download “Secret Sciences” Guitar Pro tab click button below
Please note that you must have Guitar Pro software installed on your
computer in order to view this file.
Suggest correction
comments
report bad tab
2 comments total.
0 reply
benjy118 30 Oct 18, 2016 01:59 PM

Great tab! I just noticed one small error. In the middle section this part;

--------------------------------
--------------11--------------11
--------------------------------
------12--13----------12--13----
--------------------------------
--11--------------11------------

Should be;

--------------------------------
--------------11--------------11
--------------------------------
------11--13----------11--13----
--------------------------------
--11--------------11------------

guest
You may want to rate the tab now too:
select rating