Oops, an error
Loading. Please wait.

Stormbending Tab

version 1
version 1

Solo

  • This is the first Ultimate Guitar tab to have the full tapping solo.

Whole song

  • Most of this song was easy to figure out. However,... Show more

Interactive

88 views 9 this week
no commentswrite comment
1 2 3 4 5
3 more votes to show rating
add to favorites
launch autoscroll
font size
0
reset
how to read this tab
guitar tuner
Autoscroll
slow
fast
+/-
esc
set tempo
stop
Help us to improve Ultimate-Guitar.com Take our survey!
×
Author
Difficulty
Tuning
intermediate
C G C G C E
About this tab version
This is the first Ultimate Guitar tab to have the full tapping solo. Was this info helpful? Yes No
STORMBENDING TAPPING SOLO
Dave Young plays this solo after the first chorus before the picked solo that Devin plays himself.

E|-------------------------------------------------------------|
C|--7-0-2-------9-0-2-------11-0-2-------9-0-2-----------------|
G|--------7-0-2-------7-0-2--------7-0-2-------7-0-2-----------| X2
C|-------------------------------------------------------------|
G|-------------------------------------------------------------|
C|-------------------------------------------------------------|

E|-------------------------------------------------------------|
C|--6-0-2-------7-0-2-------9-0-2--------7-0-2-----------------|
G|--------7-0-2-------7-0-2--------7-0-2-------7-0-2-----------| X2
C|-------------------------------------------------------------|
G|-------------------------------------------------------------|
C|-------------------------------------------------------------|

E|-------------------------------------------------------------|
C|-------------------------------------------------------------|
G|--10-0-7--------12-0-7--------14-0-7--------12-0-7-----------| X2
C|---------12-0-7--------12-0-7--------12-0-7--------12-0-7----|
G|-------------------------------------------------------------|
C|-------------------------------------------------------------|

E|-------------------------------------------------------------|
C|-------------------------------------------------------------|
G|--9-0-5--------10-0-5--------12-0-5--------10-0-5------------| X2
C|--------12-0-7--------12-0-7--------12-0-7--------12-0-7-----|
G|-------------------------------------------------------------|
C|-------------------------------------------------------------|


E|-------------------------------------------------------------|
C|-----------------------------7-0-5-9-0-5-11-0-5-12~----------|
G|--9-0-5-10-0-5-12-0-5-14-0-5---------------------------------|
C|-------------------------------------------------------------|
G|-------------------------------------------------------------|
C|-------------------------------------------------------------|


E|-------------------------------------------------------------|
C|-------------------------------------------------------------|
G|--12-0-7--------14-0-7--------16-0-7--------14-0-7-----------|
C|---------14-0-9--------14-0-9--------14-0-9--------14-0-9----|
G|-------------------------------------------------------------|
C|-------------------------------------------------------------|

E|-------------------------------------------------------------|
C|-------------------------------------------------------------| This second line has a couple of 
G|--12-0-7--------14-0-7--------17-0-7--------16-0-7-----------| different notes to the on above
C|---------14-0-9--------14-0-9--------14-0-9--------14-0-9----| on the last two high G string notes
G|-------------------------------------------------------------|
C|-------------------------------------------------------------|

E|-------------------------------------------------------------|
C|-------------------------------------------------------------|
G|--10-0-7--------12-0-7--------14-0-7--------12-0-7-----------| X2
C|---------14-0-9--------14-0-9--------14-0-9--------14-0-9----|
G|-------------------------------------------------------------|
C|-------------------------------------------------------------|

E|-------------------------------------------------------------|
C|-------------------------------------------------------------|
G|--10-0-7--------12-0-7--------14-0-7--------12-0-7-----------| X2
C|---------12-0-7--------12-0-7--------12-0-7--------12-0-7----|
G|-------------------------------------------------------------|
C|-------------------------------------------------------------|

E|-------------------------------------------------------------|
C|-------------------------------------------------------------|
G|--10-0-7--------12-0-7--------13-0-7--------12-0-7-----------| 
C|---------12-0-5--------12-0-5--------12-0-5--------12-0-5----|
G|-------------------------------------------------------------|
C|-------------------------------------------------------------|

E|---------------------------------|
C|---------------------------------|
G|--10-0-7--------12-0-7-----------| End of tapping solo 
C|---------12-0-5--------12-0-5----|
G|---------------------------------|
C|---------------------------------| 

************************************

| ~  Vibrato

************************************
Suggest correction
Give kudos to tab author, rate the tab!
1 2 3 4 5
comments
print report bad tab
guest
You may want to rate the tab now too:
select rating
Wanna post a correction for this tab? Suggest correction