Oops, an error
Loading. Please wait.

Time Overload Tab

61 views 1 this week
no commentswrite comment
1 2 3 4 5
3 more votes to show rating
add to favorites
launch autoscroll
font size
0
reset
how to read this tab
guitar tuner
Autoscroll
slow
fast
+/-
esc
set tempo
stop
Help us to improve Ultimate-Guitar.com Take our survey!
×
Author
----------------------------------------------------------------- 
TIME OVERLOAD - Devin Townsend Project
----------------------------------------------------------------- 
Tabbed by: Justin R 
Email:  sdjustinr@gmail.com
Tuning: C G C G C e


[Intro]

(right channel)
e|-----------------------------------------------------------------|
C|-----------------------------------------------------------------|
G|-----------------------------------------------------------------|
C|-----------------------------------------------------------------|
G|-----------------------------------------------------------------|
C|---4-4-4-4-4----4-4-4-4-4-4-4----4-4-4-6-6-6-6-7-7-7-7-9-9\2-2-2-|
     |                |                |               |
     palm muted . . .

e|--------------------------------------------------------------------|
C|--------------------------------------------------------------------|
G|--------------------------------------------------------------------|
C|--------------------------------------------------------------------|
G|----------------------------------------------------------4-4-------|
C|---4-4-4-4-4----4-4-4-4-4-4-4----4-4-4-2-2-2-2----2-2-2-2-----6-7-6-|
     |                |                |                |

e|-----------------------------------------------------------------|
C|-----------------------------------------------------------------|
G|-----------------------------------------------------------------|
C|-----------------------------------------------------------------|
G|-----------------------------------------------------------------|
C|---4-4-4-4-4----4-4-4-4-4-4-4----4-4-4-6-6-6-6-7-7-7-7-9-9\2-2-2-|
     |                |                |               |

e|---------------------------------------------------------------|
C|---------------------------------------------------------------|
G|-----------------------------------------------------2---------|
C|---------------------------------------------------------------|
G|---2-2-2-2-2----2-2-2-2-2-2-2----2-2-4-2-2-2-4-2-2-2-----------|
C|---------------------------------------------------------------|
     |                |                |               |


[Intro]

e|-------------------------------------------------------------------|
C|-------------------------------------------------------------------|
G|-------------------------------------------------------------------|
C|-------------------------------------------------------------------|
G|---9-9-9-9-9----9-9-9-9-9-9-9----9-9-9-7-7-7-7-7-7-7-7-7-7-7-7-9-7-|
C|-------------------------------------------------------------------|
     |                |                |               |       
     p.m. . . .

e|--------------------------------------------------------------------|
C|--------------------------------------------------------------------|
G|--------------------------------------------------------------------|
C|-------------------------------------------------------------6-7-6--|
G|---6-6-6-6-6----6-6-6-6-6-6-6----6-6--------------------------------|
C|-------------------------------------9-9-9-9-9-9-9-9-9-9-9-9--------|
     |                |                |               |

e|-------------------------------------------------------------------|
C|-------------------------------------------------------------------|
G|-------------------------------------------------------------------|
C|-------------------------------------------------------------------|
G|---9-9-9-9-9----9-9-9-9-9-9-9----9-9-9-7-7-7-7-7-7-7-7-7-7-7-7-9-7-|
C|-------------------------------------------------------------------|
     |                |                |               |

e|---------------------------------------------------------------|
C|---------------------------------------------------------------|
G|---------------------------------------------------------------|
C|-----------------------------------------------------9---------|
G|---6-6-6-6-6----6-6-6-6-6-6-6----6-6-7-6-6-6-7-6-6-6-----------|
C|---------------------------------------------------------------|
     |                |                |               |


[Main Riff]

e|---------------------------------------------------------------|
C|---2----2----------------------------------------------2-------|
G|---4----4----------------------------------------------4-------|
C|---4----4----------------------------------------------4-------|
G|---4----4----------------------------------------------4-------|
C|---4----4----4-4-4-4-4----4-4-4-4-4-4-4----4-4-4-4-4-4-4-------|
     |         |                |                |
               p.m. . .

e|-----------------------------------------------------------------|
C|---1----1--------------------------------------------------------|
G|---0----0--------------------------------------------------------|
C|---2----2--------------------------------------------------------|
G|---2----2--------------------------------------------------------|
C|-------------4-4-4-4-4----4-4-4-6-6-6-6-7-7-7-7-9-9-9-9-2-2-2----|
     |         |                |               |
               p.m. . .

e|---------------------------------------------------------------|
C|---2----2----------------------------------------------2-------|
G|---4----4----------------------------------------------4-------|
C|---4----4----------------------------------------------4-------|
G|---4----4----------------------------------------------4-------|
C|---4----4----4-4-4-4-4----4-4-4-4-4-4-4----4-4-4-4-4-4-4-------|
     |         |                |                |
               p.m. . .

e|-----------------------------------------------------------------|
C|---1----1--------------------------------------------------------|
G|---0----0--------------------------------------------------------|
C|---2----2--------------------------------------------------------|
G|---2----2----2-2-2-2-2----2-2-2-2-2-2-2----2-2-2-2---------------|
C|---------------------------------------------------2-2-2-2-2-2---|
     |         |                |                |
               p.m. . .

e|-----------------------------------------------------------------------|
C|-----------------------------------------------------------------------|
G|-----------------------------------------------------0------------0----|
C|---7--7---7---7---7-----9--9---9---9---9-----4----6----6--4----6----6--|
G|---7--7---7---7---7-----9--9---9---9---9-----4------------4------------|
C|---7--7---7---7---7-----9--9---9---9---9-----4------------4------------|
     |      |             |      |             |      |     |      | 


************************************

| \  Slide down

************************************
Suggest correction
Give kudos to tab author, rate the tab!
1 2 3 4 5
comments
print report bad tab
guest
You may want to rate the tab now too:
select rating
Wanna post a correction for this tab? Suggest correction