Oops, an error
Loading. Please wait.

Auto Modown tab

by Devo
708 views 1 this week
1 commentread comment
1 2 3 4 5
3 more votes to show rating
add to favorites
×
Save as Personal and add changes to this tab that will be seen only by you. Learn more ›
×
You can save this tab as Personal to edit and correct it or add notes. All changes will be seen only by you. Learn more »
launch autoscroll
font size
0
reset
how to read this tab
guitar tuner
edit
Autoscroll
slow
fast
+/-
esc
set tempo
stop
Author
-----------------------------------------------------------------
AUTO MODOWN - Devo
-----------------------------------------------------------------
Tabbed by: Maxwell1981
Email: maxwellmajor1981@yahoo.com
Tuning: Standard (E A D G B e)
NOTE: These tabs are purely ear-transcribed, so it may be inaccurate. If you'd like to
improve on it, please tell me.
---
Intro/verse*:
e|-----0h12-12-----|
B|-----------------|
G|-----------------|
D|0h2--------------|
A|0h2--------------|
E|0----------------|
Do that three times, and then:
e|------------|
B|------------|
G|------------|
D|---0--------|
A|0h2--2p0----|
E|--------3---|

“An acidhead goon in a '55 Dodge...”
e|----------------3b-|
B|-------------------|
G|-------------------|
D|55-5-55-5-55-5-----|
A|55-5-55-5-55-5-----|
E|33-3-33-3-33-3-----|
Play that twice, but on the second run through, play the 3rd fret bend at the 7th fret. 
then go back to the first two riffs.
---
As always, listening to the song to get the right idea is key.
---
*-Throughout the song, Bob1 changed the last few notes in the first riff. You'll have to
decipher the twists and turns on your own.
---
Key:
| /  slide up
| \  slide down
| h  hammer-on
| p  pull-off
| ~  vibrato
| +  harmonic
| x  Mute note

            
            
Suggest correction
Creating personal tab
Creating personal tab
You can edit any tab online and save it as your Personal.

You can edit, replace or remove any tab part or add personal notes – all changes will be seen only by you.

Personal tabs can be accessed anytime from any device, even offline.
Learn more »
Give kudos to tab author, rate the tab!
1 2 3 4 5
comments
print report bad tab
1 comment total.
0 reply
Maxwell1981 155 Mar 11, 2013 03:11 PM

OP here... I messed up on the first riff. This is how it goes:

e|------10/12-12
B|----12--------
G|7/9-----------
D|7/9-----------
A|5/7-----------
E|0/0-----------

That should be more accurate.

guest
You may want to rate the tab now too:
select rating
Wanna post a correction for this tab? Suggest correction