Oops, an error
Loading. Please wait.

Gut Feeling Tab

version 2
version 2

Whole song

Interactive

by Devo
4,118 views 6 this week
no commentswrite comment
1 2 3 4 5
please rate
add to favorites
launch autoscroll
font size
0
reset
how to read this tab
guitar tuner
Tab Pro tools
  • play this tab
  • loop segment
  • change instrument
  • show fretboard
  • metronome
×
Best way to learn
"Gut Feeling"
Autoscroll
slow
fast
+/-
esc
set tempo
stop
Contributor
-------------------------------------------------------------------------------
                   GUT FEELING/SLAP YOUR MAMMY - Devo
-------------------------------------------------------------------------------
Tabbed by: Ben Aitken
Email: ben.j.aitken@gmail.com

Tuning: G1 Electric: Standard
        G2 Electric: Standard

E5   |0 2 2 x x x|
G5   |3 5 5 x x x|
C5   |x 3 5 5 x x|
A5   |5 7 7 x x x|
D5   |x 5 7 7 x x|
D    |x 5 7 7 7 x|
C    |x 3 5 5 5 x|


||---------------0-------|---------------3----|----0----|-------0----|------3-----||
||-----------0-----------|------------0-------|-------1-|----2-----2-|---------2--||
||.----------------------|--------------------|---------|------------|----2------.||
||.-------2--------------|---------0-------0--|---------|------------|-0---------.||
||-----2------------2--0-|-----2-----------2--|-3-------|-0----------|------------||
||--0--------------------|-3------------------|---------|------------|------------||

|E5   |G5   |C5   |A5   |D5   |

|E5                |G5           |
Something about the way you taste
|C5                      |A5      |D5    |
Makes me want to clear my throat
There's a message to your movements that
Really gets my goat
I looked for sniffy linings but you're
Rotten to the core
I've had just about all I can take
You know I can't take it no more

Got a gut feeling

Centered 'round long time ago
On your ability to torment
Then you took your tongs of love and
Stripped away my garment

Got a gut feeling

|D     |C     |D    |       |D     |C     |D    |       |

|:D                  |C            |D                  |D                 :|
|--10----10----10----|-8---8---8---|-10----10----10----|-10----10----10-----|
|-----10----10----10-|---8---8---8-|----10----10----10-|----10----10----10--|
|.-------------------|-------------|-------------------|-------------------.|
|.-------------------|-------------|-------------------|-------------------.|
|--------------------|-------------|-------------------|--------------------|
|--------------------|-------------|-------------------|--------------------|

|D                   |C                      |
Slap your mammy down, slap your pappy down a-
|D     |     |
Gain
Oh move it up and down now
Oh move it all around now


===============================================================================
comments
We did not receive enough feedback on this tab! Please rate:
print report bad tab
1 2 3 4 5
I want to post or [tab]
guest
You may want to rate the tab now too:
select rating
Please do not post tabs as comments. Select "correction" instead!