Oops, an error
Loading. Please wait.
We have an official Whip It tab made by UG professional guitarists. Check out the tab »
×
by Devo
21,409 views 54 this week
3 commentsread comments
1 2 3 4 5
x 10
add to favorites
×
Save as Personal and add changes to this tab that will be seen only by you. Learn more ›
×
You can save this tab as Personal to edit and correct it or add notes. All changes will be seen only by you. Learn more »
launch autoscroll
font size
0
reset
guitar tuner
backing track
0:00
0:00
edit
Autoscroll
slow
fast
+/-
esc
set tempo
stop
Author
Unregistered
Bass tab transcription
Whip it by DEVO

Transcribed by Thomas F. Enright

Send comments, corrections, and suggestions to me at psu08138@odin.cc.pdx.edu

     e e e e e e+q   w 3  e e e e e e+q   h e e e e 7
G:-----------------|----|---------------|------------|
D:4:---------------|---*|*--------------|-----------*|
A:4:-------2-5-R---|-R-*|*------2-5-R---|-R-0-0-----*|
E:---0-0-4---------|----|-0-0-4---------|-------3-2--|

    e e e e+h   e e e e+h   e e e e+h   e e e e+h    e e e e+h   e e e e+h
G:--5---------|-----------|-7---------|-5----------|-5---------|-5---------|
D:*---5-------|-5---------|---7-------|---5-------*|---5-------|---5-------|
A:*-----3-R---|---5-------|-----5-R---|-----3-R---*|-----3-R---|-----3-R---|
E:------------|-----3-R---|-----------|------------|-----------|-----------|

   e e e e e e+h   h e e e e 3   q q e e q   e e q+h   q q e e q   e e q+h
G:---------------|------------|------------|---------|-----------|----------|
D:*--------------|-----------*|*-----------|---------|-----------|---------*|
A:*------2-5-R---|-R-0-0-----*|*-----------|-3-3-R---|-----------|-5-5-R---*|
E:-0-0-4---------|-------3-2--|--0-R-3-3-R-|---------|-0-R-3-3-R-|----------|

       e e e e e e+e e e e e e 7     e e e e e e+q   h e e e e 7
G:------------------------------|------------------|------------|
D:*-6:-------------------------*|*-4:--------------|-----------*|
A:*-4:-------2-5-R---0-R-0-----*|*-4:------2-5-R---|-R-0-0-----*|
E:-----0-0-4---------------3-2--|----0-0-4---------|-------3-2--|

    e e e e+h   e e e e+h   e e e e+h   e e e e+h 3  e e e e+h   e e e e+h
G:--5---------|-----------|-7---------|-5----------|-5---------|-5---------|
D:*---5-------|-5---------|---7-------|---5-------*|---5-------|---5-------|
A:*-----3-R---|---5-------|-----5-R---|-----3-R---*|-----3-R---|-----3-R---|
E:------------|-----3-R---|-----------|------------|-----------|-----------|
                                             
   e e e e e e+q   h e e e e   e e e e e e+q
G:---------------|-----------|---------------||
D:---------------|-----------|---------------||
A:-------2-5-R---|-R-0-0-----|-------2-5-R---||
E:-0-0-4---------|-------3-2-|-0-0-4---------||

================================================================================
Explanation of the Tab Notation

Notes: w = whole   h = half   q = quarter
         e = 8th     s = 16th   t = 32nd  x = 64th
         
         Capital durations are dotted notes 
          (equal to 1.5 times the duration value)
       R = rest
         + = tied from previous note

    #
+----+                                       +----+
|*--*|  = MEASURE                            |4:--|  = TIME 
|*--*|    REPEATS                            |4:--|    SIGNATURES
+----+    (#=number of times to go           +----+
             back and repeat the measures)

================================================================================
Suggest correction
Creating personal tab
Creating personal tab
You can edit any tab online and save it as your Personal.

You can edit, replace or remove any tab part or add personal notes – all changes will be seen only by you.

Personal tabs can be accessed anytime from any device, even offline.
Learn more »
comments
print report bad tab
3 comments total.
0 reply
f-cusson 10 Feb 27, 2011 03:09 AM

The main riff is actualy

G:-----------------|----|---------------|------------|
D:4:---------------|---*|*--------------|-----------*|
A:4:---------5-R---|-R-*|*--------5-R---|-R-0-0-----*|
E:---0-0-5-7-------|----|-0-0-5-7-------|-------3-2--|

0 reply
Dagumol 54 Aug 02, 2015 07:15 AM, edited at 11:16 am

Good tab. Playing the A on the open A string is slightly higher in tone that playing it on the E string @ the fifth fret. Really, it's a matter of preference. In most songs, I personally go for the lower tone. Anyway, good tab. Fun song..

guest
Wanna post a correction for this tab? Suggest correction