Oops, an error
Loading. Please wait.

How It Ends tab

version 2
version 2

Interactive

17,204 views 9 this week
no commentswrite comment
1 2 3 4 5
x 5
add to favorites
×
Save as Personal and add changes to this tab that will be seen only by you. Learn more ›
×
You can save this tab as Personal to edit and correct it or add notes. All changes will be seen only by you. Learn more »
launch autoscroll
font size
0
reset
how to read this tab
guitar tuner
edit
Autoscroll
slow
fast
+/-
esc
set tempo
stop
Author
Difficulty
Song: How It Ends
Artist: Devotchka

I have the general synth chords laid out as well as the piano melody

Main Synth:
   C            Em
e------      e-----|
b------      b-----|
g--0---      g--0--|
d--2---x14   d--2--|x14
a--3---      a--2--|
E------      E-----|

(Sometimes I like to add the Low E string)

Piano melody:

e------------------   e-------------------|
b------------------   b-------------------|
g------------------   g-------------------|
d--5-----2-----3---x2 d--5-----2-----3----|x2
a----3-3---3-3---3-   a----2-2---2-2--2-2-|
E------------------   E-------------------|

            
            
Suggest correction
Creating personal tab
Creating personal tab
You can edit any tab online and save it as your Personal.

You can edit, replace or remove any tab part or add personal notes – all changes will be seen only by you.

Personal tabs can be accessed anytime from any device, even offline.
Learn more »
comments
print report bad tab
guest
You may want to rate the tab now too:
select rating
Wanna post a correction for this tab? Suggest correction