Oops, an error
Loading. Please wait.

Lelaki Pencemburu Tab

version 2
version 2

Whole song

by Dewa
667 views 1 this week
no commentswrite comment
1 2 3 4 5
please rate
add to favorites
launch autoscroll
font size
0
reset
how to read this tab
guitar tuner
Autoscroll
slow
fast
+/-
esc
set tempo
stop
Help us to improve Ultimate-Guitar.com Take our survey!
×
Author
Song           : Lelaki Pencemburu
Artist         : Dewa
Tabbed by      : yoos (yoosyoes.blogspot.com)


Fig1
e|--------------------------5-----|
B|-----5---5-7-----5---5-7----7\--|
G|--/6---6------/6---6------------|
D|--------------------------------|
A|--------------------------------|
E|--------------------------------|

Fig2
e|----5---5-------5---5-----------|
B|--7---7---7---7---7---7---5-7\--|
G|--------------------------------|
D|--------------------------------|
A|--------------------------------|
E|--------------------------------|

Fig3
e|--14h16p14-12--------------------|
B|--------------12h14p12----12-----|
G|-----------------------14----11--|
D|---------------------------------|
A|---------------------------------|
E|---------------------------------|

Fig4
e|--12h14p12-----16h17p16----14--|
B|-----------14-----------17-----|
G|-------------------------------|
D|-------------------------------|
A|-------------------------------|
E|-------------------------------|

Fig5
e|--12h14p12-----14h16p14----19-19-----|
B|-----------14-----------17-------17--|
G|-------------------------------------|
D|-------------------------------------|
A|-------------------------------------|
E|-------------------------------------|

Fig6
e|-------------------------------------------------------|
B|-------------------------------------------------------|
G|-------------------------------------------------------|
D|-------------------------------------------------------|
A|-------------------------------------------------------|
E|--2h5h12-2h5h12-2h5h12-2h5h12-2h5h9-2h5h9-2h5h9-2h5h9--|

e|---------------------------------------------------|
B|---------------------------------------------------|
G|---------------------------------------------------|
D|---------------------------------------------------|
A|--2h5h9-2h5h9-2h5h9-2h5h9-2h5h9-2h5h9-2h5h9-2h5h9--|
E|---------------------------------------------------|

e|-------------------------------------------------------|
B|-------------------------------------------------------|
G|-------------------------------------------------------|
D|-------------------------------------------------------|
A|--------------------------2h5h12-2h5h12-2h5h12-2h5h12--|
E|--2h5h9-2h5h9-2h5h9-2h5h9------------------------------|

e|---------------------------------------------------|
B|---------------------------------------------------|
G|---------------------------------------------------|
D|---------------------------------------------------|
A|--2h5h9-2h5h9-2h5h9-2h5h9-2h5h9-2h5h9-2h5h9-2h5h9--|
E|---------------------------------------------------|

Fig7
e|--12h14p12-----16h17p16-----19---19-16--|
B|-----------14-----------17--------------|
G|----------------------------------------|
D|----------------------------------------|
A|----------------------------------------|
E|----------------------------------------|

e|-----------------12-14-14/16-14--16p14-12-12--|
B|----------------------------------------------|
G|--/9-11--/11-13-------------------------------|
D|----------------------------------------------|
A|----------------------------------------------|
E|----------------------------------------------|

e|--19--19-17-16-21---21-19-17-16h17p16h17p16h17p16----14--|
B|--------------------------------------------------17-----|
G|---------------------------------------------------------|
D|---------------------------------------------------------|
A|---------------------------------------------------------|
E|---------------------------------------------------------|



Intro: F#5

F#5          A5                      E5                     B5 Fig1
Detak di Setiap Detik.. Jantung di dada ini.. semakin cepat
F#5          A5                       E5                        B5 Fig2
Saat Kau Meng ucapkan.. Kata kata yang mungkin.. Tak Masuk Akal
F#5           A5                       E5                   D5 Fig3
Kita harus jenius.. untuk hanya mengendus.. konspirasi tak mulus
F#5           A5                       E5                     D5 Fig4
Hatiku Yang Hangus.. Ingin terus meringkus.. Akal Bulus dan Rakus

F#5            A5                 E5
Aku Takkan Peduli.. Siapa Yang Berani
           D5            F#5
Mendekati Kamu.. Akan Kubunuh
             A5                   E5
Aku Hanya Lelaki.. Yang Sedang Cemburu
           D5               F#5
Terbakar Asmara.. mencintai kamu

F#5          B5           D5            B5
I Am Just A Jealous Guy.. A Real Mad n Jealous Guy
              F#5                 A5                 E5       B5
I'm a Jealous Guy.. I'm a jealous guy.. I'm a jealous guy..I'm a jealous


F#5               A5                      E5                           D Fig5
Jangan Sampai terbius.. Lelaki Yang tak becus..Yang berwajah seperti Tikus
F#5            A5                        E5                    D
Aku sangat serius.. Merebut Cinta yang tulus.. Meski aku terhunus

F#5            A5                 E5
Aku Takkan Peduli.. Siapa Yang Berani
           D5            F#5
Mendekati Kamu.. Akan Kubunuh
             A5                   E5
Aku Hanya Lelaki.. Yang Sedang Cemburu
           D5               F#5
Terbakar Asmara.. mencintai kamu

Fig6
Fig7

Suggest correction
What's this?
You can suggest a correction to this tab. Community and Mods will review your correction and vote to approve or reject it.
comments
We did not receive enough feedback on this tab! Please rate:
print report bad tab
1 2 3 4 5
guest
You may want to rate the tab now too:
select rating
Please do not post tabs as comments. Select "correction" instead!