Oops, an error
Loading. Please wait.

Pangeran Cinta Tab

by Dewa
13,455 views 12 this week
1 commentread comment
1 2 3 4 5
excellent!
x 3
add to favorites
launch autoscroll
font size
0
reset
how to read this tab
guitar tuner
Autoscroll
slow
fast
+/-
esc
set tempo
stop
Help us to improve Ultimate-Guitar.com Take our survey!
×
Author
-----------------------------------------------------------------------------
                             PANGERAN CINTA - DEWA
-----------------------------------------------------------------------------
Tabbed by: Andi Firanra
Email: andi_firanra@yahoo.com
Here some correction from the previous tab i'll sent
Standard Tuning


here that I've got...

e|--------------------------------------------|
B|--------------------------------------------|
G|---------6------9------7--------------------|
D|-4-------6------9------7--------------------|
A|-4-------4------7------5--------------------|
E|-2------------------------------------------|

e|--------------------------------------------|
B|--------------------------------------------|
G|------6----9-----7--------------------------|
D|-4------------------------------------------|
A|------4----7-----5--------------------------|
E|-2------------------------------------------|

DETIK.. DETIK BERGANTI DENGAN DETIK
MINIT PUN SILIH BERGANTI
HARI-HARI PUN TERUS BERGANTI
BULAN-BULAN JUGA TERUS BERGANTI
ZAMAN-ZAMAN PUN TERUS BERUBAH
HIDUP INI JUGA PASTI MATI

REFF

SEMUA INI PASTI AKAN MUSNAH
TETAPI TIDAK CINTAKU PADAMU
KARENA AKU SANG PANGERAN CINTA
e|--------------------------------------------|
B|--------------------------------------------|
G|-------6----9---4--6--7--9------------------|
D|-4------------------------------------------|
A|-2-----4----7---2--4--5--7------------------| all note tremolo picking
E|-2------------------------------------------| repeat 3 times

MALAM MALAM DIGANTI DENGAN PAGI
PAGIPUN JADI SIANG
TAHUN-TAHUN PUN BERGANTI ABAD
YANG MUDA PUN PASTI MENJADI TUA
MUSIM-MUSIM PUN TERUS BERGANTI
HIDUP INI JUGA PASTI MATI

e|--------------------------------------------|
B|--------------------------------------------|
G|---------6------9------7--------------------|
D|-4-------6------9------7--------------------|
A|-4-------4------7------5--------------------| palm mute
E|-2------------------------------------------|

TAK AKAN ADA YANG ABADI
TAK AKAN ADA YANG KEKAL
e|--------------------------------------|
B|--------------------------------------|
G|-------6----9-----7-------------------|
D|-4------------------------------------|
A|-4-----4----7-----5-------------------|
E|-2------------------------------------|


SEMUA INI PASTI AKAN MUSNAH
TETAPI TIDAK CINTAKU PADAMU
KARENA AKU SANG PANGERAN CINTA

eb|--------------------------------------------|
Bb|--------------------------------------------|
Gb|-------6----9---4---6---7--9----------------|
Db|-4------------------------------------------|
Ab|-4-----4----7---2---4---5--7----------------| all note tremolo picking
Eb|-2------------------------------------------| repeat 3 times


Solo (rhythm)
eb|---------------------------------------------------|
Bb|---------------------------------------------------|
Gb|---------------------------------------------------|
Db|-4-4444-44--4-4444-4/6-----------------------------|
Ab|-4-4444-44--4-4444-4/4-----------------------------|
Eb|-2-2222-22--2-2222-2/4-----------------------------|

REFF
REFF
REFF
*you can create /plays solo in F#minor pentatonic.Just do what you know and enjoy!!!


Andi Firanra is from Malaysia...
Suggest correction
Give kudos to tab author, rate the tab!
1 2 3 4 5
comments
print report bad tab
1 comment total.
0 reply
hery jagoan 10 wrote on December 21 2014, 01:56 am

solo gitarnya mana???

guest
You may want to rate the tab now too:
select rating
Wanna post a correction for this tab? Suggest correction