Oops, an error
Loading. Please wait.

Dusty Road So Kind tab

70 views 9 this week
no commentswrite comment
1 2 3 4 5
3 more votes to show rating
add to favorites
×
Save as Personal and add changes to this tab that will be seen only by you. Learn more ›
×
You can save this tab as Personal to edit and correct it or add notes. All changes will be seen only by you. Learn more »
launch autoscroll
font size
0
reset
how to read this tab
guitar tuner
edit
Autoscroll
slow
fast
+/-
esc
set tempo
stop
Verse and Chorus is played the same way throughout the whole song.
All chords used are variations of C.
Im open for new suggestions and changes on how to play the song, comments and feedback is appreciated!

[Verse]
e|-------------3----------|-------------3--3----|-----------------------------|
B|-------1---------1------|------1----------5s1-|----1------1-------1-----1---|
G|---------0---------0----|---------0-----------|-------0-------------0-------|
D|----2------2---2-----2--|----2------2---2-----|--2------2---0h2-------2-----|
A|-3----------------------|---------------------|-----------------------------|
E|------------------------|-3-------------------|3-----------------3----------|

                                              (Repeat this last part)

There are some small fills between the verses, for example.
e|-----1p0------0------------------------------|
B|-1s3-----3------3----3-----------------------|
G|------------------0--------------------------|
D|--------------------0------------------------|
A|---------------------------------------------|
E|---------------------------------------------|





************************************

| h  Hammer-on
| p  Pull-off
| s  Slide

************************************

            
            
Suggest correction
Creating personal tab
Creating personal tab
You can edit any tab online and save it as your Personal.

You can edit, replace or remove any tab part or add personal notes – all changes will be seen only by you.

Personal tabs can be accessed anytime from any device, even offline.
Learn more »
Give kudos to tab author, rate the tab!
1 2 3 4 5
comments
print report bad tab
guest
You may want to rate the tab now too:
select rating
Wanna post a correction for this tab? Suggest correction