Oops, an error
Loading. Please wait.

Listen To Your Heart Tab

version 1
version 1

Interactive

by DHT
52,538 views 27 this week
6 commentsread comments
1 2 3 4 5
accurate
x 18
add to favorites
launch autoscroll
font size
0
reset
how to read this tab
guitar tuner
Tab Pro tools
  • play this tab
  • loop segment
  • change instrument
  • show fretboard
  • metronome
Autoscroll
slow
fast
+/-
esc
set tempo
stop
Contributor
Difficulty
intermediate
INTRO

e---------0-3-1-0-----0--|
B-------1---------3-1----|
G-----2------------------|
D------------------------|
A--0------------------0--|
E-----------1-----3------|

e----0-3-1-0--------------0--------|
B--1---------3-1----0-1-3---1-0----|
G-------------------------------2--|
D----------------------------------|
A--0------------------------0------|
E--------------1--------3----------|


e---------0-3-1-0-----0--|
B-------1---------3-1----|
G-----2------------------|
D------------------------|
A--0------------------0--|
E-----------1-----3------|

e----0-3-1-0---------------------|
B--1---------3-1----0-1-3--------|
G--------------------------------|
D--------------------------------|
A--0-----------------------------|
E--------------1--------3--------|
comments
print report bad tab
6 comments total. Showing first comments.
0 reply
AnthonyZ Great wrote on October 19 2005, 09:17 pm

Quite good. I am waiting for the other parts.

0 reply
likarl wrote on February 9 2006, 09:00 am

i'm waiting for the other part too!

0 reply
bJoelFan13 wrote on December 19 2006, 06:32 pm

For the techno version, the guitar riff is:

|-------------------------------------------------------------|
|-------------------------------------------------------------|
|2-2-2-2h4-5-5-5-5h7-9-9-9-9-7-5-5-5-7-5-4-2-2-2-2h4-5-5-5-5-4|
|-------------------------------------------------------------|
|-------------------------------------------------------------|
|-------------------------------------------------------------|

|---------------------------------------------------------|
|---------------------------------------------------------|
|-0-0-0-0-1-2-2-2-1-0-2-----------------------------------|
|---------------------------------------------------------|
|---------------------------------------------------------|
|---------------------------------------------------------|

I want to post or [tab]
guest
You may want to rate the tab now too:
select rating
Please do not post tabs as comments. Select "correction" instead!