Oops, an error
Loading. Please wait.

Adrenaline Bass Tab

version 1
version 1

Whole song

Interactive

880 views 1 this week
1 commentread comment
1 2 3 4 5
3 more votes to show rating
add to favorites
launch autoscroll
font size
0
reset
guitar tuner
Autoscroll
slow
fast
+/-
esc
set tempo
stop
Help us to improve Ultimate-Guitar.com Take our survey!
×
Author
Difficulty
novice
Band: Di-Rect
Song: Adrenaline
Tuning: 4 string normal E A D G

Intro
G ---------------------|
D ---------------------|
A -4444444-------------| 3x
E ---------555555-000--|

Verse
G -------------------------------------|
D -------------------------------------| 4x
A -7777777777777777-44444444-----------|
E ---------------------------55555555--|

Pre Chorus
G ------------------------------------------------|
D ------------------------------------------------|
A ------------------------------------------------|
E -4-4-555--4444-55--4444-55--4444-55--5555-44-55-|

Chorus
G ----------------------------------------------------------------|
D ----------------------------------------------------------------|
A ----------------------------------------------------------------|
E -77777777-999999\\02h3p2-444444-555555-00000000-13131313121212--|

G --------------------------------------------------|
D --------------------------------------------------|
A --------------------------------------------------|
E -77777777-99999999-44444444-55555555-444444-55\\--|

Verse  4x
Pre Chorus
Chorus

Bridge part
G ---------------------------------------------------------------------|
D ---------------------------------------------------------------------| 2x
A ------------------44444444-------------------------------------------|
E -0000000000000000----------55555555--000000000000-22222222-44444444--|

Pre Chorus
G -----------|
D -----------|
A -----------|
E -4-5-5--5--|

Chorus
G ----------------------------------------------------------------|
D ----------------------------------------------------------------|
A ----------------------------------------------------------------|
E -77777777-999999\\02h3p2-444444-555555-00000000-13131313121212--|

G --------------------------------------------------|
D --------------------------------------------------|
A --------------------------------------------------|
E -77777777-99999999-44444444-55555555-444444-55\\--|

G ---------------------------------------------------------|
D ---------------------------------------------------------|
A ----------44444444---------------------------------------|
E -00000000----------55555555--00000000-22222222-55555555--|

G ------------------------------------------------------------|
D ------------------------------------------------------------|
A ----------44444444--------------------44444444--------------|
E -00000000----------55555555--00000000----------55555555--0--|

End
G ------------------------|
D ------------------------|
A -4-44-4-4---------------|
E -----------5-55-5-5\\0--|

play bridge part till end

That's cool song have fun
Greetings ClosedRoad
Suggest correction
Give kudos to tab author, rate the tab!
1 2 3 4 5
comments
print report bad tab
1 comment total.
0 reply
ninasophie 31 Oct 22, 2009 04:40 AM

Jeetje, kan je niet meer direct basstabs maken? (A)

guest
You may want to rate the tab now too:
select rating
Wanna post a correction for this tab? Suggest correction