Oops, an error
Loading. Please wait.

Adrenaline Tab

version 2
version 2

Whole song

Interactive

1,303 views 1 this week
no commentswrite comment
1 2 3 4 5
please rate
add to favorites
launch autoscroll
font size
0
reset
how to read this tab
guitar tuner
Autoscroll
slow
fast
+/-
esc
set tempo
stop
Help us to improve Ultimate-Guitar.com Take our survey!
×
Author
Hey guys,

whats up. I couldn't find a fully correct tab of this song..
so I decided to give it a shot ;-)
if you find an error or something like that mail me.
Song is called 'Adrenaline' ,made by the dutch band Di-rect.

tabber: paul westerink
mail: paul11ajax@hotmail.com

tuning:
Guitar 1: standard
Guitar 2: standard

Legenda
| /  slide up
| \  slide down
| x  Mute note


INTRO - guitar 1 distortion
|----------|---------|---------|
|----------|---------|---------|
|--6-66666-|---------|---------|
|--6-66666-|-7-77777-|-2-------|
|--4-44444-|-7-77777-|-2-------|
|----------|-5-55555-|-0-------|x3

INTRO - guitar 2 distortion
|------------------------------|
|------------------------------|
|----------------------9\------|
|----------------------x-------|
|----------------------7\------|
|------------------------------|x3



VERSE 1 - guitar 1 distortion "what if live became a game"
|-------------------|-------------------|
|-------------------|-------------------|
|-------------------|-------------------|
|-------------------|-66666666----------|
|--2222222222222222-|-44444444-77777777-|
|--0000000000000000-|----------55555555-|x4
pm ................   ........ ........
   (its 16 times)


PRE-CHORUS - guitar 1 distortion "I put it to the test"
|---------------|        |--------------------|
|---------------|        |--------------------|
|---------------|        |--------------------|
|--6--66---7777-|        |--6--6-777--77777-2-|
|--6--66---7777-|        |--6--6-777--77777-2-|
|--4--44--/5555-|x3 then |--4--4-555--55555-0-|


CHORUS - guitar 1 distortion "let it go, let it flow"
|-----------------|----------------|----------------|---------------|
|-----------------|----------------|----------------|---------------|
|--4-44444-444444-|-6-66666-666666-|----------------|---------------|
|--4-44444-444444-|-6-66666-666666-|-6-6666--7-7777-|-2-22222-22222-|
|--2-22222-222222-|-4-44444-444444-|-6-6666--7-7777-|-2-22222-22222-|
|-----------------|----------------|-4-4444--5-5555-|-0-00000-00000-|

|-----------------|----------------|----------------|---------------|
|-----------------|----------------|----------------|---------------|
|--4-44444-444444-|-6-66666-666666-|----------------|---------------|
|--4-44444-444444-|-6-66666-666666-|-6-6666--7-7777-|-6-66666-7-----|
|--2-22222-222222-|-4-44444-444444-|-6-6666--7-7777-|-6-66666-7-----|
|-----------------|----------------|-4-4444--5-5555-|-4-44444-5-----|


REPEAT VERSE 1

REPEAT PRE-CHORUS

REPEAT CHORUS


SOLO - guitar 2
|-----------------------|-------------------------------------|
|-----------------------|-------------------------------------|
|--99999999-16-16-16-16-|-14-14-14-14--13-13-13-13-13-13-13-13|
|--xxxxxxxx-x--x--x--x--|-x--x--x--x---x--x--x--x--x--x--x--x-|
|--77777777-14-14-14-14-|-12-12-12-12--11-11-11-11-11-11-11-11|
|-----------------------|-------------------------------------|

|--------------------------|----------------------|----------------|
|--------------------------|----------------------|----------------|
|--16-16-16-16-15-15-14-14-|-99999999-16-16-16-16-|-14-14-14-14-13-|
|--x--x--x--x--x--x--x--x--|-xxxxxxxx-x--x--x--x--|-x--x--x--x--x--|
|--14-14-14-14-13-13-12-12-|-77777777-14-14-14-14-|-12-12-12-12-11-|
|--------------------------|----------------------|----------------|

|-----------------------------------|
|-----------------------------------|
|--14-14-14-14-14-14-14-14-88888888-|
|--x--x--x--x--x--x--x--x--xxxxxxxx-|
|--12-12-12-12-12-12-12-12-66666666-|
|-----------------------------------| repeat whole solo again


VERSE 2 - guitar 1 distortion "
|------------------|
|------------------|
|------------------|
|--6-66-6-7-77--77-|
|--6-66-6-7-77--77-|
|--4-44-4-5-55--55-|


REPEAT CHORUS


OUTRO guitar 1 distortion "let it go"
|----------------|-------------------|
|----------------|-------------------|
|----------------|-6-6666------------|
|--2-2-2222-2222-|-6-6666-7-7777-----|
|--2-2-2222-2222-|-4-4444-7-7777-----|
|--0-0-0000-0000-|--------5-5555-----|x4

guitar 2 distortion- fourth time play this
|------------------------------------|
|------------------------------------|
|---------------------------------9\-|
|---------------------------------x--|
|---------------------------------7\-|
|------------------------------------|

OUTRO - GUITAR 1 distortion
|--------------------|
|--------------------|
|--6-6-666-----------|
|--6-6-666-7-77777---|
|--4-4-444-7-77777---|
|----------5-55555---|

guitar 2  "GO!"
|--------------------|
|--------------------|
|-----------------9\-|
|-----------------x--|
|-----------------7\-|
|--------------------|

THATS IT!

if you like this tab, you may want to check out my other tabs in my profile. Same music style.
dont forget to rate :P
Suggest correction new What's this?
You can suggest a correction to this tab. Community and Mods will review your correction and vote to approve or reject it.
comments
We did not receive enough feedback on this tab! Please rate:
print report bad tab
1 2 3 4 5
guest
You may want to rate the tab now too:
select rating
Please do not post tabs as comments. Select "correction" instead!