Oops, an error
Loading. Please wait.

Bring Down Tomorrow Bass Tab

version 1
version 1

Whole song

Interactive

536 views 1 this week
no commentswrite comment
1 2 3 4 5
worth learning
x 1
add to favorites
launch autoscroll
font size
0
reset
guitar tuner
Tab Pro tools
  • play this tab
  • loop segment
  • change instrument
  • show fretboard
  • metronome
Autoscroll
slow
fast
+/-
esc
set tempo
stop
Difficulty
novice
Couplet 1 stil.

Refrein:
     D                 E               F#                F#
  G|----------------------------------------------------------------------|
  D|----------------------------------------------------------------------|
  A|--5-5-5-5-5-5-5-5-----------------------------------------------------|
  E|-------------------0-0-0-0-0-0-0-0--2-2-2-2-2-2-2-2--2-2-2-2-2-2-2-2--|

     D                 B                F                E               
  G|----------------------------------------------------------------------|
  D|----------------------------------------------------------------------|
  A|--5-5-5-5-5-5-5-5--2-2-2-2-2-2-2-2------------------------------------|
  E|------------------------------------1-1-1-1-1-1-1-1--0-0-0-0-0-0-0-0--|

     D                  E                       
  G|------------------------------------|
  D|------------------------------------|
  A|--5-5-5-5-5-5-5-5-------------------|
  E|-------------------0-0-0-0-0-0-0-0--|



Tussenstuk 1x hele nummer:
     A                A/G#             F#m              D
  G|----------------------------------------------------------------------|
  D|--7-7-7-7-7-7-7-7--6-6-6-6-6-6-6-6--4-4-4-4-4-4-4-4-------------------|
  A|-----------------------------------------------------5-5-5-5-5-5-5-5--|
  E|----------------------------------------------------------------------|


Couplet: 
     A                A/G#             F#m              D
  G|----------------------------------------------------------------------|
  D|--7-7-7-7-7-7-7-7--6-6-6-6-6-6-6-6--4-4-4-4-4-4-4-4-------------------|
  A|-----------------------------------------------------5-5-5-5-5-5-5-5--|
  E|----------------------------------------------------------------------|

      A                A/G#             D                D/C#    D
  G|----------------------------------------------------------------------|
  D|--7-7-7-7-7-7-7-7--6-6-6-6-6-6-6-6------------------------------------|
  A|------------------------------------5-5-5-5-5-5-5-5--4-4-4-4-5-5-5-5--|
  E|----------------------------------------------------------------------|2x
Refrein 2:

     D                 E               F#                F#
  G|----------------------------------------------------------------------|
  D|----------------------------------------------------------------------|
  A|--5-5-5-5-5-5-5-5-----------------------------------------------------|
  E|-------------------0-0-0-0-0-0-0-0--2-2-2-2-2-2-2-2--2-2-2-2-2-2-2-2--|

     D                 B                F                E               
  G|----------------------------------------------------------------------|
  D|----------------------------------------------------------------------|
  A|--5-5-5-5-5-5-5-5--2-2-2-2-2-2-2-2------------------------------------|
  E|------------------------------------1-1-1-1-1-1-1-1--0-0-0-0-0-0-0-0--|
 




    D                 E               F#                F#
  G|----------------------------------------------------------------------|
  D|----------------------------------------------------------------------|
  A|--5-5-5-5-5-5-5-5-----------------------------------------------------|
  E|-------------------0-0-0-0-0-0-0-0--2-2-2-2-2-2-2-2--2-2-2-2-2-2-2-2--|

     D                 E                              
  G|------------------------------------|
  D|------------------------------------|
  A|--5-5-5-5-5-5-5-5-------------------|
  E|-------------------0-0-0-0-0-0-0-0--|

Bridge:

     D                F#m               E                D 
  G|----------------------------------------------------------------------|
  D|-------------------4--------------------------------------------------|
  A|--5--------------------------------------------------5----------------|
  E|------------------------------------0---------------------------------|

     F#m               E                D                -               
  G|----------------------------------------------------------------------|
  D|--4-4-4-4-4-4-4-4-----------------------------------------------------|
  A|------------------------------------5-5-5-5-5-5-5-5-------------------|
  E|-------------------0-0-0-0-0-0-0-0------------------------------------|

Refrein 3:

     D                 E               F#                F#
  G|----------------------------------------------------------------------|
  D|----------------------------------------------------------------------|
  A|--5-5-5-5-5-5-5-5-----------------------------------------------------|
  E|-------------------0-0-0-0-0-0-0-0--2-2-2-2-2-2-2-2--2-2-2-2-2-2-2-2--|

     D                 B                F                E               
  G|----------------------------------------------------------------------|
  D|----------------------------------------------------------------------|
  A|--5-5-5-5-5-5-5-5--2-2-2-2-2-2-2-2------------------------------------|
  E|------------------------------------1-1-1-1-1-1-1-1--0-0-0-0-0-0-0-0--|

    D                 E               F#                F#
  G|----------------------------------------------------------------------|
  D|----------------------------------------------------------------------|
  A|--5-5-5-5-5-5-5-5-----------------------------------------------------|
  E|-------------------0-0-0-0-0-0-0-0--2-2-2-2-2-2-2-2--2-2-2-2-2-2-2-2--|

     D                 E                              
  G|------------------------------------|
  D|------------------------------------|
  A|--5-5-5-5-5-5-5-5-------------------|
  E|-------------------0-0-0-0-0-0-0-0--|
	A
  G|----|
  D|--7-|
  A|----|
  E|----|
comments
We did not receive enough feedback on this tab! Please rate:
print report bad tab
1 2 3 4 5
I want to post or [tab]
guest
You may want to rate the tab now too:
select rating
Please do not post tabs as comments. Select "correction" instead!