Oops, an error
Loading. Please wait.

Holiday Chords

325 views 3 this week
no commentswrite comment
1 2 3 4 5
excellent!
x 4
add to favorites
launch autoscroll
font size
0
reset
transpose
0
reset
simplify chords
- display chords -
guitar tuner
Tab Pro tools
  • play this tab
  • loop segment
  • change instrument
  • show fretboard
  • metronome
Autoscroll
slow
fast
+/-
esc
set tempo
stop
Difficulty
novice
Di-Rect - Holiday
 Tabbed by Timothy G.,

Tuning: Standard
Capo: None


     Bm     D    G6    F#m    E
e|----2-----2-----0-----2-----0---|
B|----3-----3-----3-----2-----0---|
G|----4-----2-----0-----2-----1---|
D|----4-----0-----0-----4-----2---|
A|----2-----x-----2-----4-----2---|
E|----2-----x-----3-----2-----0---|


Intro:

Bm / D / G6 / G6 / 2x

Verse:
        Bm                       D
See the falling snow through the night
    F#m                  E
The moon a silver ray of light
         Bm               D
When I'm moving on, or I get slowed down
     F#m                          E
It's okay,  'cause it'll all work out

Chorus:
     Bm      D                  F#m    E
On a holiday,  somewhere we'll be   hiding
     Bm      D               F#m     E               
  (Note: Listen to the
On a holiday,  we learn how to    loooove again         song for the E-chord)

Verse:
    Bm                D
The world ahead is an open door
   F#m                         E
No going back to where we were before
        Bm               D
All the city light, left behind
       F#m                       E
I love everything that's new in our eyes

Chorus:
     Bm      D                  F#m    E
On a holiday,  somewhere we'll be   hiding
     Bm      D               F#m     E
On a holiday,  we learn how to    loooove again

Continue this pattern (Bm-D-F#m-E) up until the electric guitar part done by Spike.
I also managed to fix that tab out, but not the chords in between the riffs.

Bridge / outro (distortion):

Riff 1:
e|----------------------------------------------|
B|----------------------------------------------|
G|----------------------------------------------|     (3x)
D|----------------------------------------------|
A|--7-9-9~9~-7-9-9~9-----7-9-9~9~-7-9-9~9-------|
E|-------------------7-9------------------7-9---|

Then, fourth time:

Riff 2:
e|------------------------------------------|
B|------------------------------------------|
G|------------------------------------------|
D|------------------------------------------|
A|--7-9-9~9~-7-9-9~9-----7-9(x5)^9.5--------|   (Note: Hit the 9 on the A
E|-------------------7-9--------------------|    string a few times, gradually
                                                bending the string)
Then, go back to Riff 1.

After a few "ooohohohoooo aaahaahaaaa!" (or however you want to express it...), do the 
same, only a few steps lower:

(04:17 min into the song)
Riff 3:
e|----------------------------------------------|
B|----------------------------------------------|
G|----------------------------------------------|    (4x)
D|----------------------------------------------|
A|--2-4-4~4~-2-4-4~4-----2-4-4~4~-2-4-4~4-------|
E|-------------------2-4------------------2-4---|

If you have any comments, please e-mail me at:
bamboographic@gmail.com

I hope you enjoy this, as I have put a lot of time into this.
Thank you and have fun :)


Little disclaimer:
I learned this song by ear. The music and lyrics still belong to DI-RECT.
comments
print report bad tab
I want to post or [tab]
guest
You may want to rate the tab now too:
select rating
Please do not post tabs as comments. Select "correction" instead!