Oops, an error
Loading. Please wait.

Hungry For Love Tab

2,916 views 1 this week
no commentswrite comment
1 2 3 4 5
please rate
add to favorites
launch autoscroll
font size
0
reset
how to read this tab
guitar tuner
Autoscroll
slow
fast
+/-
esc
set tempo
stop
Help us to improve Ultimate-Guitar.com Take our survey!
×
Contributor
Hi all, 
made another Di-rect tab
hope you like it. It's called Hungry for love

tabber: paul westerink
mail: paul 11ajax@hotmail.com

tuning: standard



INTRO - CLEAN
|-----------------|------------|---------------|---------------|
|-----------------|------------|---------------|---------------|
|--4------------4-|------------|------------4--|------------4--|
|--4--4-4-------4-|--4-4-------|--4-4-------4--|--4-4-------4--|
|--2--2-2--2-2--2-|--2-2--2-2--|--2-2--2-2--2--|--2-2--2-2--2--|
|----------0-0----|-------0-0--|-------0-0-----|-------0-0-----|
pm    . .  . .       . .  . .     . .  . .        . .  . .


VERSE - HEAVY DISTORTION
|---------------|
|---------------|
|------------4--|
|--4-4-------4--|
|--2-2--2-2--2--|
|-------0-0-----|x12
pm . .  . .  


PRE-CHORUS "my head is spinning so fast"
|------------------|------------------|-------------------|-------------------|
|------------------|------------------|-------------------|-------------------|
|------------------|------------------|-------------------|-------------------|
|--4-4-4-4-4-4-4-4-|-2-2-2-2-2-2-2-2--|-------------------|-------------------|
|--2-2-2-2-2-2-2-2-|-2-2-2-2-2-2-2-2--|--6-6-6-6-6-6-6-6--|--2-2-2-2-2-2-2-2--|
|------------------|------------------|--4-4-4-4-4-4-4-4--|--0-0-0-0-0-0-0-0--|
pm . . . . . . . .   . . . . . . . .     . . . . . . . .     . . . . . . . .

|------------------|------------------|-------------------|--------------|
|------------------|------------------|-------------------|--------------|
|------------------|------------------|-------------------|--------------|
|--4-4-4-4-4-4-4-4-|-2-2-2-2-2-2-2-2--|-------------------|--2~--2~--2~--|
|--2-2-2-2-2-2-2-2-|-2-2-2-2-2-2-2-2--|--4-4-4-4-4-4-4-4--|--2~--2~--2~--|
|------------------|------------------|--2-2-2-2-2-2-2-2--|--0~--0~--0~--|
pm . . . . . . . .   . . . . . . . .     . . . . . . . .


CHORUS "hungry for love and"
|------------------|------------------|-------------------|-------------------|
|------------------|------------------|-------------------|-------------------|
|--4-4-4-4-4-4-4-4-|-4-4-4-4-4-4-4-4--|-------------------|-------------------|
|--4-4-4-4-4-4-4-4-|-2-2-2-2-2-2-2-2--|--6-6-6-6-6-6-6-6--|--2-2-2-2-2-2-2-2--|
|--2-2-2-2-2-2-2-2-|-2-2-2-2-2-2-2-2--|--6-6-6-6-6-6-6-6--|--2-2-2-2-2-2-2-2--|
|------------------|------------------|--4-4-4-4-4-4-4-4--|--0-0-0-0-0-0-0-0--|

|------------------|------------------|-------------------|--------------|
|------------------|------------------|-------------------|--------------|
|--4-4-4-4-4-4-4-4-|-4-4-4-4-4-4-4-4--|-------------------|--------------|
|--4-4-4-4-4-4-4-4-|-2-2-2-2-2-2-2-2--|--6-6-6-6-6-6-6-6--|--2~--2~--2~--|
|--2-2-2-2-2-2-2-2-|-2-2-2-2-2-2-2-2--|--6-6-6-6-6-6-6-6--|--2~--2~--2~--|
|------------------|------------------|--4-4-4-4-4-4-4-4--|--0~--0~--0~--|

-----------------------------------------------------------------------

REPEAT VERSE 

REPEAT PRE-CHORUS

REPEAT CHORUS

-----------------------------------------------------------------------

BRIDGE - HEAVY DISTORTION "oooh nothing could be better"
|-----------------------------------|-----------------------------------|
|-----------------------------------|-----------------------------------|
|-----------------------------------|-----------------------------------|
|--4-4-4-4-4-4-4-4-4-4-4-4-4-4-4-4--|--2-2-2-2-2-2-2-2-2-2-2-2-2-2-2-2--|
|--4-4-4-4-4-4-4-4-4-4-4-4-4-4-4-4--|--2-2-2-2-2-2-2-2-2-2-2-2-2-2-2-2--|
|--2-2-2-2-2-2-2-2-2-2-2-2-2-2-2-2--|--0-0-0-0-0-0-0-0-0-0-0-0-0-0-0-0--|

|-------------------|-------------------|-------------------|---------------------------------|
|-------------------|-------------------|-------------------|---------------------------------|
|-------------------|-------------------|-------------------|---------------------------------|
|--6-6-6-6-6-6-6-6--|--4-4-4-4-4-4-4-4--|--5-5-5-5-5-5-5-5--|--7-7-7-7-7-7-7-7-7-7-7-7-7-7-7--|
|--6-6-6-6-6-6-6-6--|--4-4-4-4-4-4-4-4--|--5-5-5-5-5-5-5-5--|--7-7-7-7-7-7-7-7-7-7-7-7-7-7-7--|
|--4-4-4-4-4-4-4-4--|--2-2-2-2-2-2-2-2--|--3-3-3-3-3-3-3-3--|--5-5-5-5-5-5-5-5-5-5-5-5-5-5-5--|

INTRO - CLEAN
|----|          |--------------|
|----|          |--------------|
|--4-|          |------------4-|
|--4-|          |--4-4-------4-|
|--2-|          |--2-2--2-2--2-|
|----|then play |-------0-0----|x4
                pm . .  . .

VERSE - HEAVY DISTORTION
|-----|          |---------------|
|-----|          |---------------|
|--4--|          |------------4--|
|--4--|          |--4-4-------4--|
|--2--|          |--2-2--2-2--2--|
|-----|then play |-------0-0-----|x4 THE FOURTH TIME, DONT PLAY THE LAST CHORD
                 pm . .  . .  


CHORUS
|-----------------|-----------------|-----------------|------------------|
|-----------------|-----------------|-----------------|------------------|
|-4-4-4-4-4-4-4-4-|-4-4-4-4-4-4-4-4-|-----------------|------------------|
|-4-4-4-4-4-4-4-4-|-2-2-2-2-2-2-2-2-|-6-6-6-6-6-6-6-6-|-2-2-2-2-2-2-2-2--|
|-2-2-2-2-2-2-2-2-|-2-2-2-2-2-2-2-2-|-6-6-6-6-6-6-6-6-|-2-2-2-2-2-2-2-2--|
|-----------------|-----------------|-4-4-4-4-4-4-4-4-|-0-0-0-0-0-0-0-0--|x3

|-----------------|-----------------|-----------------|-------------|
|-----------------|-----------------|-----------------|-------------|
|-4-4-4-4-4-4-4-4-|-4-4-4-4-4-4-4-4-|-----------------|-------------|
|-4-4-4-4-4-4-4-4-|-2-2-2-2-2-2-2-2-|-6-6-6-6-6-6-6-6-|-2~--2~--2~--|
|-2-2-2-2-2-2-2-2-|-2-2-2-2-2-2-2-2-|-6-6-6-6-6-6-6-6-|-2~--2~--2~--|
|-----------------|-----------------|-4-4-4-4-4-4-4-4-|-0~--0~--0~--|

OUTRO - "yeahie yeahie yeah"
|-----------------|-----------------|-----------------|-----------------|
|-----------------|-----------------|-----------------|-----------------|
|-4-4-4-4-4-4-4-4-|-4-4-4-4-4-4-4-4-|-----------------|-----------------|
|-4-4-4-4-4-4-4-4-|-2-2-2-2-2-2-2-2-|-6-6-6-6-6-6-6-6-|-2-2-2-2-2-2-2-2-|
|-2-2-2-2-2-2-2-2-|-2-2-2-2-2-2-2-2-|-6-6-6-6-6-6-6-6-|-2-2-2-2-2-2-2-2-|
|-----------------|-----------------|-4-4-4-4-4-4-4-4-|-0-0-0-0-0-0-0-0-|x3

|-----------------|-----------------|-----------------|------------|
|-----------------|-----------------|-----------------|------------|
|-4-4-4-4-4-4-4-4-|-4-4-4-4-4-4-4-4-|-----------------|------------|
|-4-4-4-4-4-4-4-4-|-2-2-2-2-2-2-2-2-|-6-6-6-6-6-6-6-6-|-2~--2~--2~-|
|-2-2-2-2-2-2-2-2-|-2-2-2-2-2-2-2-2-|-6-6-6-6-6-6-6-6-|-2~--2~--2~-|
|-----------------|-----------------|-4-4-4-4-4-4-4-4-|-0~--0~--0~-|play at the end
Suggest correction new What's this?
You can suggest a correction to this tab. Community and Mods will review your correction and vote to approve or reject it.
comments
We did not receive enough feedback on this tab! Please rate:
print report bad tab
1 2 3 4 5
guest
You may want to rate the tab now too:
select rating
Please do not post tabs as comments. Select "correction" instead!