Oops, an error
Loading. Please wait.

Just The Way I Do Tab

version 3
version 3

Whole song

453 views 6 this week
no commentswrite comment
1 2 3 4 5
3 more votes to show rating
add to favorites
launch autoscroll
font size
0
reset
how to read this tab
guitar tuner
Autoscroll
slow
fast
+/-
esc
set tempo
stop
Help us to improve Ultimate-Guitar.com Take our survey!
×
Author
-----------------------------------------------------------------------------------------
                               JUST THE WAY I DO - Di-rect
-----------------------------------------------------------------------------------------
Tabbed by: paul westerink
Email: paul11ajax@hotmail.com

Tuning: standard (EADGBe)

Legenda
| /  slide up
| \  slide down
| h  hammer on
| p  pull off
| () Softly played note/non essential note
| b  bend
| r  release bend .example: 10b12r put finger on 10th fred and bend it
     till it sounds like the 12th fret, then release the bend
| ~  let it ring
| .  palm mute
| hr harmonic with right hand


guitar 1 - with echo/delay
|---------------------------|
|---------------------------|
|---------------------------|
|-6-------------------------|
|-6-------------------------|
|-4\------------------------|



Intro - guitar 2
|------------------------------------------------------------------------------------------|
|-8h9p8----------------8h9p8------------------8h9p8--------------------11--8h11-11b13r-11~-|
|-------10-8-----8/10--------10-8-----10b12r--------10-8--8-10--10b12----------------------|
|------------(8)------------------(8)------------------------------------------------------|
|------------------------------------------------------------------------------------------|
|------------------------------------------------------------------------------------------|
Intro - guitar 1
|------------------------------------------------------------------------------------------|
|------------------------------------------------------------------------------------------|
|-------88888888--88888888----------------------88888888-----------------------------------|
|-------88888888--88888888--66666666--88888888--88888888--55555555----6---6---6---66-------|
|-------66666666--55555555--66666666--88888888--66666666--55555555--6666666666666666-------|
|---------------------------44444444--66666666------------33333333--4444444444444444-------|
                                                                  pm.. ... ... ...


Verse 1 - guitar 1 (and 2) "It just started with a beer"
|-------------------------------------------------------------------------|
|-------------------------------------------------------------------------|
|---8--888---8--888---------------------8--888----------------------------|
|-88888888-88888888---6--666---8--888-88888888---5--555---6--6--6--6--66--|
|-66666666-55555555-66666666-88888888-66666666-55555555-6666666666666666--|
|-------------------44444444-66666666----------33333333-4444444444444444--|x2
pm.. ..    .. ..    .. ..    .. ..    .. ..    .. ..    .. .. .. .. ..

prechorus - guitar 1
|--------------------------|
|--------------------------|
|--------------------------|
|-3~----3~----3/5-6~-----8-|
|-3~----3~----3/5-6~-----8-|
|-1~----1~----1/3-4~-----6-|

chorus - both guitars 'Its just the way I do (the way I do)'
|------------------------------------------------------|
|------------------------------------------------------|
|-88888888-88888888------------------88888888-88888888-|
|-88888888-88888888-6666666666666666-88888888-88888888-|
|-66666666-55555555-6666666666666666-66666666-55555555-|
|-------------------4444444444444444-------------------|

|------------------------------------------------------|
|------------------------------------------------------|
|------------------------------------------------------|
|-10-10-10-10-10-10-10-10--11-11-11-11-11-11-11-11-----|
|-10-10-10-10-10-10-10-10--11-11-11-11-11-11-11-11-----|
|-8--8--8--8--8--8--8--8---9--9--9--9--9--9--9--9------|

|-------------------------------------------------------------------------|
|-------------------------------------------------------------------------|
|-88888888-88888888------------------88888888-88888888--------------------|
|-88888888-88888888-6666666666666666-88888888-88888888-5/6-6--5/6-6--5-88-|
|-66666666-55555555-6666666666666666-66666666-55555555-5/6-6--5/6-6--5-88-|
|-------------------4444444444444444-------------------3/4-4--3/4-4--3-66-|


REPEAT VERSE 1

REPEAT PRECHORUS

REPEAT CHORUS



bridge - guitar 1 (the second guitar plays the same part, but he does fast strumming)
|----------------------|
|----------------------|
|------6~---5~---------|
|-3~---6~---5~--66-55--|
|-3~---4~---3~--66-55--|
|-1~------------44-33--|x6

                                                                     |First bend the 7, then hit 
                                                                     |it. While you're hitting  
                                                                     |the 7 release the bend slowly
                                                                     |so you can get that cool
SOLO! ;-D  guitar 2  (gtr 1 chords intro, 2 times. then prechorus)   |sound.
|------------------------------------------------------------------------------------------|
|---8h9p8----------------8h9p8------------------8h9p8---------------8--7b-7b-7b-7b-7b-(7b)-|
|---------10-8-----8/10--------10-8-----10b12r--------10-8---8-10-7------------------------|
|--------------(8)------------------(8)----------------------------------------------------|
|------------------------------------------------------------------------------------------|
|------------------------------------------------------------------------------------------|

|----------------------------------------------------------------------------------------------|
|-----11h13p11--------------------11h13p11-------------------11h14-16-----16-----16-----16-----|
|-(12)---------12--------12--13b-----------12---------12-13----------18b----18b----18b----18b--|
|-----------------13--13----------------------13---13----13b-----------------------------------|
|----------------------------------------------------------------------------------------------|
|----------------------------------------------------------------------------------------------|
 |
|-----------17br-17br-17br--------------------------------|
|-------16-----------------------16------16---------------|
|--18hr---------------------16b-----16b-----16b--16br-15\-|
|---------------------------------------------------------|
|---------------------------------------------------------|
|---------------------------------------------------------|
18th note is harmonic


REPEAT CHORUS


OUTRO - guitar 2
|------------------|
|------------------|
|------------------|
|-5--6B--5---------|
|------------------|
|------------------|
OUTRO - guitar 1
|------------------|
|-------------(0)--|
|-8----------------|
|-8--8--6~---------|
|-6--8--6~---------|
|----6--4~---------|

comment and rate please! you might want to check out my profile, more rocktabs there.
found an mistake? mail me with the correction.




Suggest correction
Give kudos to tab author, rate the tab!
1 2 3 4 5
comments
print report bad tab
guest
You may want to rate the tab now too:
select rating
Wanna post a correction for this tab? Suggest correction