Oops, an error
Loading. Please wait.

Rollercoaster Tab

version 1
version 1

Whole song

Interactive

6,305 views 3 this week
2 commentsread comments
1 2 3 4 5
excellent!
x 5
add to favorites
launch autoscroll
font size
0
reset
how to read this tab
guitar tuner
Autoscroll
slow
fast
+/-
esc
set tempo
stop
Help us to improve Ultimate-Guitar.com Take our survey!
×
***please note: this is a more complete version of the one i did earlier.***


Di-rect - Rollercoaster
From the album "Over the moon"
Tabbed by Sjoerd Dijkstra (shurdus@hotmail.com)

Riff A

   E5 P.M.  .  .  .  .  G5 P.M.  .  .  .  .

e|------------------------------------------------------|
B|------------------------------------------------------|
G|------------------------------------------------------|
D|-2--------------------5-------------------------------|
A|-2--2--2--2--2--2--2--5--5--5--5--5--5--5-------------|
E|-0--0--0--0--0--0--0--3--3--3--3--3--3--3-------------|

   C5 P.M.  .  .  .  .  D5 P.M.  .  .  .  .

e|------------------------------------------------------|
B|------------------------------------------------------|
G|-5--------------------7-------------------------------|
D|-5--5--5--5--5--5--5--7--7--7--7--7--7--7-------------|
A|-3--3--3--3--3--3--3--5--5--5--5--5--5--5-------------|
E|------------------------------------------------------|

End Riff A

Play Riff A 3 times, then play twice 

e|------------------------------------------------------|
B|------------------------------------------------------|
G|------------------------------------------------------|
D|--10-10-10-9-9-9-7-7-7-5-5-5-7-7-9-9------------------|
A|------------------------------------------------------|
E|------------------------------------------------------|

Slightly palm mute that entire part.

For the chorus just play Riff A

After the chorus play

   E5 P.M.  .  .  .  .  G5 P.M.  .  .

e|------------------------------------------------------|
B|------------------------------------------------------|
G|------------------------------------------------------|
D|-2--------------------------------5\sl----------------|
A|-2--------------------5-----5-----5x------------------|
E|-0--0--0--0--0--0--0--3--0--3--0--3x------------------|

Note: In the part above, slide only the note played
on the D string, mute the others. Also it is possible
that an A5 is played at the end of this riff. I'm not
sure. You figure it out.

Second verse. Play twice

   Em           G

e|------------------------------------------------------|
B|-----------------------3------------------------------|
G|----------0---------0---------------------------------|
D|----0--2---------0------------------------------------|
A|------------------------------------------------------|
E|-0------------3---------------------------------------|

After that some chord gets strummed but I have no idea
which one. I'd stum a G, and only the e, B and G strings.

After the second time the chorus part is played play

    D5                  C5               

e|------------------------------------------------------|
B|------------------------------------------------------|
G|------------------------------------------------------|
D|--7--7------7--7------5-------------------------------|
A|--5--5------5--5------3-------------------------------|
E|--5--5------5--5------3-------------------------------|

The second times end that riff with an Gsus4 like this.

e|---|
B|---|
D|---|
G|-3-|
A|-3-|
E|-3-|

Then at some point the solo kicks in. Play

e|------------------------------------------------------|
B|------------------------------------------------------|
G|-9p7h9--12--11--9-------9-----------------------------|
D|---------------------12---9~~~~~~-12--10--9--7p5h7----|
A|------------------------------------------------------|
E|------------------------------------------------------|

e|------------------------------------------------------|
B|------------------------------------------------------|
G|------------------------------------------------------|
D|--7h9---------7h9---------7--9/10--9--7p5h7~~~~~~-----|
A|--------10p7--------10p7------------------------------|
E|------------------------------------------------------|

Play this solo twice. End the second time with a slide of 
the last note. You might want to replace it with an E played
on the 12th fret of the E string and slide from there for
a sound that resembles the sound of the guitars in the song
better.

I think that about covers the song. Note that at no point in
this tab I tried to tab out the timing, so listen to the
song for the details on the timing.
Suggest correction
What's this?
You can suggest a correction to this tab. Community and Mods will review your correction and vote to approve or reject it.
comments
print report bad tab
2 comments total.
0 reply
Yellowcarded 222 wrote on December 12 2006, 01:58 am

After the second time the chorus part is played play

Is it D5 and C5, because the tab refer to a A5 and G5.

0 reply
meneer-xxx 691 wrote on November 16 2007, 03:26 am

really great tab 5/5 :D

guest
You may want to rate the tab now too:
select rating
Please do not post tabs as comments. Select "correction" instead!