Oops, an error
Loading. Please wait.

She Tab

version 2
version 2

Whole song

1,123 views 3 this week
no commentswrite comment
1 2 3 4 5
3 more votes to show rating
add to favorites
launch autoscroll
font size
0
reset
how to read this tab
guitar tuner
Autoscroll
slow
fast
+/-
esc
set tempo
stop
Help us to improve Ultimate-Guitar.com Take our survey!
×
Author
Difficulty
novice
She – Di-rect

Intro
e-----3-------3---|
B-3-------3-------|
G---0---0---0---0-|
D-----------------|
A-----------------|
E-----------------|4x

Verse 1
e-----3-------3---|
B-3-------3-------|
G---0---0---0---0-|
D-----------------|
A-----------------|
E-----------------|12x

Chorus 1
A   A   F#m   F#m   D   D   E   E   A   A   F#m   F#m   D   E   A   A

Verse 2
G   G   Dsus4   Dsus4   Cadd9   Dsus4   G   G   Dsus4   Dsus4   Cadd9   Dsus4

Chorus 2

e|-----------------------------------------------------------------|
B|-----------------------------------------------------------------|
G|-2-2---------7-7---------2-2---------7-----------------2-2---5---|
D|-2-2---4-4---7-7---2-2---2-2---4-4---7-2---3-3---5-5---2-2---5-5-|
A|-0-0---4-4---5-5---2-2---0-0---4-4---5-2---3-3---3-3---0-0---3-5-|
E|-------2-2---------0-0---------2-2-----0---1-1---3-3-----------3-|

Chorus 3

-----------------------------------------------------------------|
-----------------------------------------------------------------|
-5-5---2-2---------------5-5---2-2---------5-5---2-2-------------|
-5-5---2-2---3-3---5-5---5-5---2-2---3-5---5-5---2-2---3-3---5-5-|
-3-3---0-0---3-3---5-5---3-3---0-0---3-5---3-3---0-0---3-3---5-5-|
-------------1-1---3-3---------------1-3---------------1-1---3-3-|

-----------------------------------------|
-----------------------------------------|
-2-2---------------2-2-------------------|
-2-2---5-5---3-5---2-2---5-5---3-3---5-5-|
-0-0---5-5---3-5---0-0---5-5---3-3---5-5-|
-------3-3---1-3---------3-3---1-1---3-3-|

Outro

------------------------------------------|
------------------------------------------|
-5-5---2-2--------------------------------|
-5-5---2-2---3-3---5-5--------------------|
-3-3---0-0---3-3---5-5-(until song stops)-|
-------------1-1---3-3--------------------|

Chords:
A = -02220
F#m = 244222
D = --232
E = 022100
G = 320033
Dsus4 = --0233
Cadd9 = -32033
Suggest correction
Give kudos to tab author, rate the tab!
1 2 3 4 5
comments
print report bad tab
guest
You may want to rate the tab now too:
select rating
Wanna post a correction for this tab? Suggest correction