Oops, an error
Loading. Please wait.

Someday Bass Tab

213 views 1 this week
1 commentread comment
1 2 3 4 5
please rate
add to favorites
launch autoscroll
font size
0
reset
guitar tuner
Autoscroll
slow
fast
+/-
esc
set tempo
stop
Help us to improve Ultimate-Guitar.com Take our survey!
×
Author
Difficulty
novice
Artist: Di-rect
Song: Someday
Album: Di-rect
Tuning: E-A-D-G
Tabber: Daan Adriaanse

Intro : No bass
Verse 1

G---------------------------------------------|
D---------------------------------------------|
A---------------------------------------------|
E---11-------7-7-7--------9-------9-9-9-------|3x

G---------------------------------------------|
D---------------------------------------------|
A---------------------------------------------|
E---11--------2-2-2-------9-------9-9-9-------|1x

Pre Chorus

G---------------------------------------------|
D---------------------------------------------|
A---7(8x)---------------------2(7x)-----------|
E---------------------------------------------|1x

Chorus

G---------------------------------------------|
D---------------------------------------------|
A--------4(8x)-6(8x)-2(8x)--------------------|
E--2(8x)--------------------------------------|1x

End With

G---------------------------------------------|
D---------------------------------------------|
A-4-4-4-4-4-----------------------------------|
E---------------------------------------------|

Repeat Verse                                  1x
Repeat Chorus                                 1x
Break

G---------------------------------------------|
D---------------------------------------------|
A--4(16x)-2(16x)-4(16x)-2(16x)----------------|
E---------------------------------------------|1x

Repeat Chorus(Start at 3 bar en then to the ending)
Suggest correction
Give kudos to tab author, rate the tab!
1 2 3 4 5
comments
print report bad tab
1 comment total.
0 reply
jesper0546 41 wrote on June 20 2013, 05:32 am

Great !!

It's 100% Right
Thanks !

guest
You may want to rate the tab now too:
select rating
Wanna post a correction for this tab? Suggest correction