Oops, an error
Loading. Please wait.

Someday Tab

403 views 1 this week
no commentswrite comment
1 2 3 4 5
please rate
add to favorites
launch autoscroll
font size
0
reset
how to read this tab
guitar tuner
Autoscroll
slow
fast
+/-
esc
set tempo
stop
Help us to improve Ultimate-Guitar.com Take our survey!
×
Contributor
delay + reverb effect


intro 
|--------9-----------9----------------9---------------6-----|
|-----7--------7h9---------7h9-----7----------7h9--7--------|
|--8--------8-----------8-------8--------8---------------8--|
|-----------------------------------------------------------|
|-----------------------------------------------------------|
|-----------------------------------------------------------|


verse  
|-----9------------------9--------------------------------|
|--7--------7h9------7---------7h9------------------------|
|-------8---------8---------8------10--10h11p10-----------|
|-----------------------------------------------13p12h13--|
|---------------------------------------------------------|
|---------------------------------------------------------|


|--------9------------------9-------------6-----|
|-----7--------7h9-------7--------7h9--7--------|
|--8--------8---------8--------8----------------|
|-----------------------------------------------|
|-----------------------------------------------|
|-----------------------------------------------|


prechorus
|--7-7-7-7-7-7-7-7-11-11-11-11-11-11-9\----|
|------------------------------------------|
|------------------------------------------|
|------------------------------------------|
|------------------------------------------|
|------------------------------------------|


chorus
|---------------------------------------|
|---------------------------------------|
|-----------66666666-88888888-44444444--|
|--44444444-66666666-88888888-44444444--|
|--44444444-44444444-66666666-22222222--|
|--22222222-----------------------------|x2

|---------|
|---------|
|--6666---|
|--6666---|
|--4444\--|
|---------|

verse
|--------9-----------9-------------9-------------------------|
|-----7--------7h9---------7h9--7-------7h9--11v-------------|
|--8--------8-----------8------------8------------9h10p9-----|
|--------------------------------------------------------13--|
|------------------------------------------------------------|
|------------------------------------------------------------|

|--------9------------------9-------------6-----|
|-----7--------7h9-------7--------7h9--7--------|
|--8--------8---------8--------8----------------|
|-----------------------------------------------|
|-----------------------------------------------|
|-----------------------------------------------|

 
prechorus
|--7-7-7-7-7-7-7-7-11-11-11-11-11-11-9\----|
|------------------------------------------|
|------------------------------------------|
|------------------------------------------|
|------------------------------------------|
|------------------------------------------|


chorus
|---------------------------------------|
|---------------------------------------|
|-----------66666666-88888888-44444444--|
|--44444444-66666666-88888888-44444444--|
|--44444444-44444444-66666666-22222222--|
|--22222222-----------------------------|x2


|------------|
|------------|
|--66666666--|
|--66666666--|
|--44444444--|
|------------|

bridge
|-------------------------------------|
|-------------------------------------|
|--4444444444444444-6666666666666666--|
|--4444444444444444-6666666666666666--|
|--2222222222222222-4444444444444444--|
|-------------------------------------|x2


chorus
|---------------------|
|---------------------|
|--88888888-44444444--|
|--88888888-44444444--|
|--66666666-22222222--|
|---------------------|

|---------------------------------------|
|---------------------------------------|
|-----------66666666-88888888-44444444--|
|--44444444-66666666-88888888-44444444--|
|--44444444-44444444-66666666-22222222--|
|--22222222-----------------------------|x3

end with F#5

mail:   paul11ajax@hotmail.com
tabber: paul westerink

comments
We did not receive enough feedback on this tab! Please rate:
print report bad tab
1 2 3 4 5
I want to post or [tab]
guest
You may want to rate the tab now too:
select rating
Please do not post tabs as comments. Select "correction" instead!