Oops, an error
Loading. Please wait.

Times Are Changing Tab

version 1
version 1

Whole song

967 views 1 this week
no commentswrite comment
1 2 3 4 5
2 more votes to show rating
add to favorites
launch autoscroll
font size
0
reset
how to read this tab
guitar tuner
Autoscroll
slow
fast
+/-
esc
set tempo
stop
Help us to improve Ultimate-Guitar.com Take our survey!
×
Tuning
D# G# C# F# A# D#
(/) Slide Up  (\) Slide Down  (h) Hammer On  (p) Pull Off  (b) Bend (r) Release (v) Vibrato

Great song from the new album of di-rect!

0:36 (acoustic guitar)
E|--x-x-x-x-x-x--x-x-x-x-x-x-x-x-|   |-x--x-|
B|--6-6-6-6-6-6--2-2-2-2-2-2-2-2-|   |-x--2-|
G|--6-6-6-6-6-6--3-3-3-3-3-3-3-3-|4x |-x--3-|
D|--8-8-8-8-8-8--4-4-4-4-4-4-4-4-|   |-x--4-|
A|--8-8-8-8-8-8--4-4-4-4-4-4-4-4-|   |-x--4-|
E|--x-x-x-x-x-x--x-x-x-x-x-x-x-x-|   |-x--x-|
                                      "Forever..."

0:56 (electric guitar)
E|------------------------x--|
B|------------------------6--|
G|--8--8b--\3--8--8b--\3--6--|
D|------------------------8--|
A|------------------------8--|
E|------------------------x--|

After that follow the chords of the acoustic part, but picking the strings induvidialy, 
and with distortion.

solo
1:42
E|-------------------------------------------------------9-9--|
B|--11-(11)-(11)-(11)-(11)-(11)-(11)-(11)-(11)-(11)--9-9------|
G|------------------------------------------------------------|
D|------------------------------------------------------------|
A|------------------------------------------------------------|
E|------------------------------------------------------------|

---------------------------------9-9-------------------------------|
-------------------9-9--11b--9-9-------------------------9-9-------|
10-10-10-10-10-8-8------13b----------10-10-10-10-10-8-8-------3b-b-|
-------------------------------------------------------------------|
-------------------------------------------------------------------|
-------------------------------------------------------------------|


2:04 (acoustic part again)
E|--x-x-x-x-x-x--x-x-x-x-x-x-x-x-|
B|--6-6-6-6-6-6--2-2-2-2-2-2-2-2-|
G|--6-6-6-6-6-6--3-3-3-3-3-3-3-3-|3x
D|--8-8-8-8-8-8--4-4-4-4-4-4-4-4-|
A|--8-8-8-8-8-8--4-4-4-4-4-4-4-4-|
E|--x-x-x-x-x-x--x-x-x-x-x-x-x-x-|

Im not sure about the 'Wohohohooohoohoohoo' part, only that at 2:49 the solo starts 
again! Any sugestions? tomlash@hetnet.nl
Thx paul westerink for the chords and the solo (although you made some mistakes..)
Suggest correction
Give kudos to tab author, rate the tab!
1 2 3 4 5
comments
print report bad tab
guest
You may want to rate the tab now too:
select rating
Wanna post a correction for this tab? Suggest correction