Oops, an error
Loading. Please wait.

Webcam Girl Bass Tab

441 views 1 this week
no commentswrite comment
1 2 3 4 5
please rate
add to favorites
launch autoscroll
font size
0
reset
guitar tuner
Autoscroll
slow
fast
+/-
esc
set tempo
stop
Help us to improve Ultimate-Guitar.com Take our survey!
×
Author
Difficulty
intermediate
I searched for a bass tab for this song, but I couldn't find one, so I decided to tab it 
myself. This is my first tab. Maybe it isn't 100% right, but I think it's close to it. 
At least I think it sounds pretty good. Enjoy!

Webcam Girl by Di-Rect

Chorus 1
G –--------------------------------------------2-2-4-4-2-2-1-1-----|
D -2-2-------------------------------------2-2-----------------4-4-|
A -----4-4-2-2---------------------0-0-4-4-------------------------|
E -------------4-4-2-2-0-0-2-2-4-4---------------------------------|

G ---------------------------------------------2-2-4-4-2-2-1-1-----|
D -2-2-------------------------------------2-2-----------------4-2-|
A -----4-4-2-2---------------------0-0-4-4-------------------------|
E -------------4-4-2-2-0-0-2-2-4-4---------------------------------|

Verse 1
G -------------------------------8---9-8---|
D -------2---2-2-----------7-9-9---9-----9-|
A -----2---------4-2-0---7-----------------|
E -0-4-----2-----------9-------------------|

Pre-chorus 2
G ---4-------------------------------4-------------------|
D -6---6---------------------------6---6-----------------|
A -------7-4-----------0-4-2-0-----------7-4----------3~-|
E -----------7-5-4-2-4---------4-2-----------7-5-4-5~----|

Verse 2
G -----------------------------6---6-------|
D -----2---2-2-----------7-9-9---9---9-6-9-|
A ---2---------4-2-0---7-------------------|
E -4-----2-----------9---------------------|

Pre-chorus 2
G ---4-------------------------------4-------------------|
D -6---6---------------------------6---6-----------------|
A -------7-4-----------0-4-2-0-----------7-4----------3~-|
E -----------7-5-4-2-4---------4-2-----------7-4-0-5~----|

Bridge
G ---------------------------|
D ---------------------------|
A -4~----4~----0~-------0~---|
E ----2~----2~----0~-2~----0-|

Chorus 2
G ---------------------------------------------2-2-4-4-2-2-1-1-----|
D -2-2-2-2-2-2-2-2-4-4-4-4-4-4-4-4-----------------------------4-4-|
A ---------------------------------0-0-0-0-0-0---------------------|
E -----------------------------------------------------------------|

Chorus 3
G ---------------------------------------------2-2-4-4-2-2-1-1-----|
D -----------------------------------------2-2-----------------4-4-|
A ---------------------------------0-0-4-4-------------------------|
E -0-0-0-0-0-0-0-0-2-2-2-2-2-2-2-2---------------------------------|

Outro
G -----------------------------------------------------------------|
D -----------------------------------------------------------------|
A ---------------------------------0-0-0-0-0-0-0-0-2-2-0-0---------|
E -0-0-0-0-0-0-0-0-2-2-2-2-2-2-2-2-------------------------4-4-2-0-|

Order to play:
Chorus 1
Verse 1 (x2)
Pre-chorus 1
Chorus 1
Verse 2
Verse 1
Pre-chorus 2
Chorus 1
Bridge*
Chorus 1
Chorus 2
Chorus 1
Chorus 3
Chorus 1
Outro
Suggest correction
Give kudos to tab author, rate the tab!
1 2 3 4 5
comments
print report bad tab
guest
You may want to rate the tab now too:
select rating
Please do not post tabs as comments. Select "correction" instead!