Oops, an error
Loading. Please wait.

Destination Diamonds tab

118 views 3 this week
no commentswrite comment
1 2 3 4 5
3 more votes to show rating
add to favorites
×
Save as Personal and add changes to this tab that will be seen only by you. Learn more ›
×
You can save this tab as Personal to edit and correct it or add notes. All changes will be seen only by you. Learn more »
launch autoscroll
font size
0
reset
how to read this tab
guitar tuner
edit
Autoscroll
slow
fast
+/-
esc
set tempo
stop
Author
I didn't always follow the strumming pattern note for note,
but you can find it easily by listening to the song.


[Intro]

e|---------------------------------------------------------------------------|
B|-14------------------------------------------------------------------------|
G|-13------------------------------------------------------------------------|
D|-14------------------------------------------------------------------------|
A|---------------------------------------------------------------------------|
E|---------------------------------------------------------------------------|
   make ring


e|---------------------------------------------------------------------------|
B|-----------------------------------------------------------------7/9-------|
G|---------------------------------------------------------------------------|
D|-6-----------------6-------------------6-----------------6--8/9--4/6-------|  x4
A|-7-----------------7-------------------7-----------------7--6/7------------|
E|----0--0--0--0--0-----0--0-0-0--0-0-0-----0--0--0--0--0--------------------|
      PM                PM                  PM


[Verse 1]

   I never met another girl that tastes like a plum quite the way you do
e|---------------------------------------------------------------------------|
B|-----------------------------------------------------------------7/9-------|
G|---------------------------------------------------------------------------|
D|-6-----------------6-------------------6-----------------6--8/9--4/6-------|
A|-7-----------------7-------------------7-----------------7--6/7------------|
E|----0--0--0--0--0-----0--0-0-0--0-0-0-----0--0--0--0--0--------------------|
      PM                PM                  PM


  And though the kisses are fun I feel my mouth going numb and my lips turn blue
e|---------------------------------------------------------------------------|
B|-----------------------------------------------------------------7/9-------|
G|---------------------------------------------------------------------------|
D|-6-----------------6-------------------6-----------------6--8/9--4/6-------|
A|-7-----------------7-------------------7-----------------7--6/7------------|
E|----0--0--0--0--0-----0--0-0-0--0-0-0-----0--0--0--0--0--------------------|
      PM                PM                  PM


  'Cuz you're as cold and hard as ice and I'm flesh and blood
e|---------------------------------------------------------------------------|
B|-----------------------------------------------------------------7/9-------|
G|---------------------------------------------------------------------------|
D|-6-----------------6-------------------6-----------------6--8/9--4/6-------|
A|-7-----------------7-------------------7-----------------7--6/7------------|
E|----0--0--0--0--0-----0--0-0-0--0-0-0-----0--0--0--0--0--------------------|
      PM                PM                  PM


   I never thought that a popsicle chick could taste so good
e|---------------------------------------------------------------------------------|
B|-----------------------------------------------------------------7/9-------9\7---|
G|---------------------------------------------------------------------------------|
D|-6-----------------6-------------------6-----------------6--8/9--4/6--8/9--6\4---|
A|-7-----------------7-------------------7-----------------7--6/7-------6/7--------|
E|----0--0--0--0--0-----0--0-0-0--0-0-0-----0--0--0--0--0--------------------------|
      PM                PM                  PM


[Chorus]

          Baby do you like to mess around
e|-5-----------------7-----------------9-----------9--9--7---7--7--7---5/7-5-|
B|-5-----------------7-----------------9-----------9--9--7---7--7--7---5/7-5-|
G|-6-----------------8-----------------9-----------9--9--8---8--8--8---6/8-6-|
D|-7-----------------9-----------------11----------11-11-9---9--9--9---7/9-7-|
A|-0--0--0--0--0--0--0--0--0--0--0--0--0--0--0--0----------------------------|
E|---------------------------------------------------------------------------|
      PM                PM                PM


Then baby we should make a mess on the love express when diamonds is in town
e|-5--5--5--5---7--7--7--7--9----9-------------------|
B|-5--5--5--5---7--7--7--7--9----9----7h9--7h9-9-9-7-|
G|-6--6--6--6---8--8--8--8--9----9----8h9--8h9-9-9-8-|
D|-7--7--7--7---9--9--9--9--11---11------------------|
A|-0--0--0--0---0--0--0--0--0----0----0----0---------|
E|---------------------------------------------------|


[Verse]

e|---------------------------------------------------------------------------|
B|-----------------------------------------------------------------7/9-------|
G|---------------------------------------------------------------------------|
D|-6-----------------6-------------------6-----------------6--8/9--4/6-------|  x2
A|-7-----------------7-------------------7-----------------7--6/7------------|
E|----0--0--0--0--0-----0--0-0-0--0-0-0-----0--0--0--0--0--------------------|
      PM                PM                  PM

You say you might have fallen for a guy like me when you were 17
e|---------------------------------------------------------------------------|
B|-----------------------------------------------------------------7/9-------|
G|---------------------------------------------------------------------------|
D|-6-----------------6-------------------6-----------------6--8/9--4/6-------|
A|-7-----------------7-------------------7-----------------7--6/7------------|
E|----0--0--0--0--0-----0--0-0-0--0-0-0-----0--0--0--0--0--------------------|
      PM                PM                  PM

But if you're calling my clothes and my lines immature babe what do you mean
e|---------------------------------------------------------------------------|
B|-----------------------------------------------------------------7/9-------|
G|---------------------------------------------------------------------------|
D|-6-----------------6-------------------6-----------------6--8/9--4/6-------|
A|-7-----------------7-------------------7-----------------7--6/7------------|
E|----0--0--0--0--0-----0--0-0-0--0-0-0-----0--0--0--0--0--------------------|
      PM                PM                  PM

'Cuz I'm all grown and I've payed in full the hi price of love
e|---------------------------------------------------------------------------|
B|-----------------------------------------------------------------7/9-------|
G|---------------------------------------------------------------------------|
D|-6-----------------6-------------------6-----------------6--8/9--4/6-------|
A|-7-----------------7-------------------7-----------------7--6/7------------|
E|----0--0--0--0--0-----0--0-0-0--0-0-0-----0--0--0--0--0--------------------|
      PM                PM                  PM

Whoever thought that a girls dirty tricks would feel so good
e|----------------------------------------------------------------------------------|
B|-----------------------------------------------------------------7/9-------9\7----|
G|----------------------------------------------------------------------------------|
D|-6-----------------6-------------------6-----------------6--8/9--4/6--8/9--6\4--6-|
A|-7-----------------7-------------------7-----------------7--6/7-------6/7-------7-|
E|----0--0--0--0--0-----0--0-0-0--0-0-0-----0--0--0--0--0---------------------------|
      PM                PM                  PM

e|-----------------------|-----------------------|
B|------7/9-------9\7----|------7/9-------9\7----|
G|-----------------------|-----------------------|
D|-8/9--4/6--8/9--6\4--6-|-8/9--4/6--8/9--6\4----|
A|-6/7-------6/7-------7-|-6/7-------6/7---------|
E|-----------------------|-----------------------|


[Chorus]

          Baby do you like to mess around
e|-5-----------------7-----------------9-----------9--9--7---7--7--7---5/7-5-|
B|-5-----------------7-----------------9-----------9--9--7---7--7--7---5/7-5-|
G|-6-----------------8-----------------9-----------9--9--8---8--8--8---6/8-6-|
D|-7-----------------9-----------------11----------11-11-9---9--9--9---7/9-7-|
A|-0--0--0--0--0--0--0--0--0--0--0--0--0--0--0--0----------------------------|
E|---------------------------------------------------------------------------|
      PM                PM                PM


Then baby we should make a mess on the love express when diamonds is in town
e|-5--5--5--5---7--7--7--7--9----9-------------------|
B|-5--5--5--5---7--7--7--7--9----9----7h9--7h9-9-9-7-|
G|-6--6--6--6---8--8--8--8--9----9----8h9--8h9-9-9-8-|
D|-7--7--7--7---9--9--9--9--11---11------------------|
A|-0--0--0--0---0--0--0--0--0----0----0----0---------|
E|---------------------------------------------------|


[Break]

e|-------------|-------------|--5----5----5----X\--|--5----7----9----X\-------------|
B|-------------|-------------|--5----5----5----X\--|--5----7----9----X\-------------|
G|-------------|-------------|--6----6----6----X\--|--6----8----9----X\-------------|
D|-6-----------|-6-----------|--7----7----7----X\--|--7----9----11---X\-------------|
A|-7-----------|-7-----------|--0----0----0----X\--|--0----0----0----X\-------------|
E|-0-----------|-0-----------|-----------------X\--|-----------------X\-------------|
     make ring


[Outro]

Baby do you like to mess around
e|---------------------------------------------------------------------------|
B|-----------------------------------------------------------------7/9-------|
G|---------------------------------------------------------------------------|
D|-6-----------------6-------------------6-----------------6--8/9--4/6-------|  
A|-7-----------------7-------------------7-----------------7--6/7------------|
E|----0--0--0--0--0-----0--0-0-0--0-0-0-----0--0--0--0--0--------------------|
      PM                PM                  PM

Baby do you like to mess around
e|---------------------------------------------------------------------------|
B|-----------------------------------------------------------------7/9-------|
G|---------------------------------------------------------------------------|
D|-6-----------------6-------------------6-----------------6--8/9--4/6-------|  
A|-7-----------------7-------------------7-----------------7--6/7------------|
E|----0--0--0--0--0-----0--0-0-0--0-0-0-----0--0--0--0--0--------------------|
      PM                PM                  PM

Baby do you like to mess around
e|---------------------------------------------------------------------------|
B|-----------------------------------------------------------------7/9-------|
G|---------------------------------------------------------------------------|
D|-6-----------------6-------------------6-----------------6--8/9--4/6-------|  
A|-7-----------------7-------------------7-----------------7--6/7------------|
E|----0--0--0--0--0-----0--0-0-0--0-0-0-----0--0--0--0--0--------------------|
      PM                PM                  PM

e|---------------------------------------------------------------------------|
B|---------------------------------------------------------------------------|
G|---------------------------------------------------------------------------|
D|-6-----------------5-------------------6-----------------5-----------------|  
A|-7-----------------6-------------------7-----------------6-----------------|
E|----0--0--0--0--0-----0--0-0-0--0-0-0-----0--0--0--0--0-----0--0--0--0--0--|
      PM                PM                  PM

e|--9--9--9--9--7--7--7--7-9--------------------------------------------------|
B|--9--9--9--9--7--7--7--7-9--------------------------------------------------|
G|--9--9--9--9--8--8--8--8-9--------------------------------------------------|
D|--11-11-11-11-9--9--9--9-11-------------------------------------------------|
A|--0--0--0--0-------------0--------------------------------------------------|
E|--------------7--7--7--7----------------------------------------------------|
                              make ring



************************************

| h  Hammer-on
| /  Slide up
| \  Slide down
| X  Dead note

************************************

            
            
Suggest correction
Creating personal tab
Creating personal tab
You can edit any tab online and save it as your Personal.

You can edit, replace or remove any tab part or add personal notes – all changes will be seen only by you.

Personal tabs can be accessed anytime from any device, even offline.
Learn more »
Give kudos to tab author, rate the tab!
1 2 3 4 5
comments
print report bad tab
guest
You may want to rate the tab now too:
select rating
Wanna post a correction for this tab? Suggest correction