Oops, an error
Loading. Please wait.

Something Else Tab

1,304 views 1 this week
no commentswrite comment
1 2 3 4 5
please rate
add to favorites
launch autoscroll
font size
0
reset
how to read this tab
guitar tuner
Autoscroll
slow
fast
+/-
esc
set tempo
stop
Help us to improve Ultimate-Guitar.com Take our survey!
×
Difficulty
intermediate
by xavier parmantier

Standard Tuning

(time divided up into quarters by "T 2 3 4")
**********************************************************************
INTRO
**********************************************************************

  --T-2-3-4-T-2-3-4-T-2-3-4-T-2-3-4-|-T-2-3-4-T-2-3-4-T-2-3-4-T-2-3-4-|
E ----------------------------------|---------------------------------|
B ----------7_5---------5---7_5---0-|---------2-------------2---------|
G ------6-------6-----6---6-----6---|-----2-------2-----2-------2---2-|
D --7-----7-------7-----------------|-4-----4-------4-----4-------4---|
A ----------------------------------|---------------------------------|
E ----------------------------------|---------------------------------|

**********************************************************************
VERSE
**********************************************************************

   A   Bm   A11  F#m   E    D   E2   Fm
--------2----0----2----0----5----7----9|
---5----3----3----2----0----7----9---10|
---6----4----2----2----1----7----9---11|
---7----4----4----4----2----7----9---11|
---0----2----0----4----2----5----7----9|
--------2----x----2----0----5----7----9|

------------------------------------------------|
--5--------------------------5------------------|
--6--------------------------6------------------|
--7--------------------------7------------------|
--0--------------------------0------------------|
------------------------------------------------|
Floating on waves of static high above your home

-------------------------------------------------|
-3--------------3----------------2---------------|
-4--------------2----------------2---------------|
-4--------------4----------------4---------------|
-2------------------------------(0)--------------|
-------------------------------------------------|
Somewhere in between water and ice

Looking down upon everyone you’ve ever known
In your whole entire so called life

I’ve always thought that you were really something else
Like a presence here from far away

Unwrapped as if to draw a tangent from yourself
Never ever having much to say

**********************************************************************
CHORUS
**********************************************************************

-----------------------------------------------------------------|
-------------------------------5-5-5-5-5-5-5-5-5-5-5-5-5-5-5-5.--|
-9..-------11..----------------6-6-6-7-6-6-6-7-6-6-6-7-6-6-6-7.--|
-9..-------11..----------------7-7-7-7-7-7-7-7-7-7-7-7-7-7-7-7.--|
-7..-------9..-----------------0-0-0-0-0-0-0-0-0-0-0-0-0-0-0-0.--|
-----------------------------------------------------------------|
I know you know just what you like

-----------------------------------------------------------------|
---------------------------------------------------10-10-10-10..-|
-9..-------7..----------------11-11-11-11-11-11-11-11-11-11-11..-|
-9..-------7..----------------11-11-11-11-11-11-11-11-11-11-11..-|
-7..-------5..----------------9--9--9--9--9--9--9--9--9--9--9-..-|
-----------------------------------------------------------------|
And I am really not your thing

But just in case you change your mind
I wrote this song for you to sing

**********************************************************************
VERSE 2
**********************************************************************

You always were the type to hide your head in style
Wary of the latest trend or scene

Despite your act of sense your name is in demand
Bleeding through a naughty magazine

**********************************************************************
CHORUS 2
**********************************************************************

I know you know just what you like
And I am really not your thing

But just in case you change your mind
I wrote this song for you to sing

**********************************************************************
BRIDGE
**********************************************************************
---------------------------------------------------------------|
--------------------5-5-5-5----------------------10-10-10-10---|
-7-7-7-9-x-9-x-11---6-6-7-6---7-7-7-9-x-9-x-11---11-11-11-11---|
-7-7-7-9-x-9-x-11---7-7-7-7---7-7-7-9-x-9-x-11---11-11-11-11---|
-5-5-5-7-x-7-x-9--------------5-5-5-7-x-7-x-9----9--9--9--9----|
---------------------------------------------------------------|

**********************************************************************
CHORUS 3
**********************************************************************

I know you know just what you like
And I am really not your thing

But just in case you change your mind
I wrote this song for you to sing
Suggest correction
What's this?
You can suggest a correction to this tab. Community and Mods will review your correction and vote to approve or reject it.
comments
We did not receive enough feedback on this tab! Please rate:
print report bad tab
1 2 3 4 5
guest
You may want to rate the tab now too:
select rating
Please do not post tabs as comments. Select "correction" instead!