Oops, an error
Loading. Please wait.

Wait See Tab

966 views 1 this week
no commentswrite comment
1 2 3 4 5
please rate
add to favorites
launch autoscroll
font size
0
reset
how to read this tab
guitar tuner
Tab Pro tools
  • play this tab
  • loop segment
  • change instrument
  • show fretboard
  • metronome
×
Best way to learn
"Wait See"
Autoscroll
slow
fast
+/-
esc
set tempo
stop
Contributor
Difficulty
intermediate
by xavier parmantier

***************************************
INTRO
***************************************

-----------------------------------|
-----------------------------------|
-6-6-6-6-6-6-6-8-8-8-8-9-8-8-8-8---|
-6-6-6-6-9-9-9-9-9-9-9-9-9-9-9-9---|
-4-4-4-4-0-0-0---------------------|
---------------7-7-7-7-7-7-7-7-7---|

***************************************
VERSE 1
***************************************

to play over and over (one chord per sentence)
the third one could look a little strange considering the studio version
but it 100% right according to the kxp acoustic version.

--------------------------|
--------------------------|
-6----8----5----6---------|
-6----9----6----7---------|
-4------------------------|
------7----4----5---------|

Falling into something different
How should I know
Whether I should trust my instincts
Farther than I can throw?
Playing with a double-decker
Changing the rules
Hanging down and out past midnight
With the freaks and the ghouls

***************************************
CHORUS
***************************************

--------------------------------------------------------------------|
-----------------------------------------5-5-5-5-5-0-0-0-0-5-5-5-5--|
--8-8-8-9-8-8-8-9-8-8-8-9-8-8-8-9--6-6-6-6-6-6-6-6-4-4-4-4-6-6-6-6--|
--9-9-9-9-9-9-9-9-9-9-9-9-9-9-9-9--9-9-9-7-7-7-7-7-6-6-6-6-7-7-7-7--|
-----------------------------------0-0-0----------------------------|
--7-7-7-7-7-7-7-7-7-7-7-7-7-7---------------------------------------|

Feeling like a bit-part actor I work in between the lines

--------------------------------------------------------------------|
-----------------------------------------5-5-5-5-5-0-0-0-0-5-5-5-5--|
--8-8-8-9-8-8-8-9-8-8-8-9-8-8-8-9--6-6-6-6-6-6-6-6-4-4-4-4-6-6-6-6--|
--9-9-9-9-9-9-9-9-9-9-9-9-9-9-9-9--9-9-9-7-7-7-7-7-6-6-6-6-7-7-7-7--|
-----------------------------------0-0-0----------------------------|
--7-7-7-7-7-7-7-7-7-7-7-7-7-7---------------------------------------|

Saving up for something faster I'm waiting upon my time (For your heart's sake)

----------------------------------|
----------------------------------|
-6-6-6-6-9-9-9-9-8-8-8-8-9-9-8-8--|
-6-6-6-6-9-9-9-9-9-9-9-9-9-9-9-9--|
-4-4-4-4-7-7-7-7------------------|
-----------------7-7-7-7-7-7-7-7--|
Don't you wait around for me to decide what
I want to grow up to be
I'll just let you down if I do decide that
I just want to wait and see

***************************************
BRIDGE
***************************************

-----------------------------------|
-----------------------------------|
-6-6-6-6-6-6-6-8-8-8-8-9-8-8-8-8---|
-6-6-6-6-9-9-9-9-9-9-9-9-9-9-9-9---|
-4-4-4-4-0-0-0---------------------|
---------------7-7-7-7-7-7-7-7-7---|

***************************************
VERSE 2
***************************************

--------------------------|
--------------------------|
-6----8----5----6---------|
-6----9----6----7---------|
-4------------------------|
------7----4----5---------|

Memories of verbal violence
Talk in my face
Retaliating with silence
Running away in place
Chancing upon situations
Out of my league
I just need some provocation
And I'm down on my knees
comments
We did not receive enough feedback on this tab! Please rate:
print report bad tab
1 2 3 4 5
I want to post or [tab]
guest
You may want to rate the tab now too:
select rating
Please do not post tabs as comments. Select "correction" instead!