Oops, an error
Loading. Please wait.

All I Never Wanted Tab

681 views 1 this week
2 commentsread comments
1 2 3 4 5
2 more votes to show rating
add to favorites
launch autoscroll
font size
0
reset
how to read this tab
guitar tuner
Autoscroll
slow
fast
+/-
esc
set tempo
stop
Help us to improve Ultimate-Guitar.com Take our survey!
×
i sortof like this song since i can relate to it so when i found out that no one else
tabbed it i just had to.

e----1-----1-------1-------1-----|
b-----1------1-------1-------1---|
g--------------------------------|
d-0------0-----------------------| 2x intro
a--------------1-------1---------|
e--------------------------------|


e----1-----1-------1-------1-----|
b-----1------1-------1-------1---|
g--------------------------------|
d-0------0-----------------------| 3x  verse
a--------------1-------1---------|
e--------------------------------|
  it was all a dream...

e---1------1-------1------1------|
b-----1------1-------1-------1---|
g--------------------------------|
d--------------------------------| 
a-3-----3-------1-------1--------|
e--------------------------------|
  then floating down

e----1-----1-------1-------1-----|
b-----1------1-------1-------1---|
g--------------------------------|
d-0------0-----------------------| 3x  verse
a--------------1-------1---------|
e--------------------------------|
  well its strange how you feel...
e---1------1-------1------1------|
b-----1------1-------1-------1---|
g--------------------------------|
d--------------------------------| 
a-3-----3-------1-------1--------|
e--------------------------------|
  tryin to turn the pages

chorus:
e----|
b----|
g-10-|
d-10-| 
a-8--|x 8 

e----|
b----|
g----|
d-10-| 
a-10-|x 8
e-8--|

e----|
b----|
g----|
d-12-| 
a-12-|x 8
e-10-|

e----|
b----|
g----|
d-8--| 
a-8--|x 8
e-6--|
repeat 4 times for chorus

verse and chorus the same
Suggest correction
Give kudos to tab author, rate the tab!
1 2 3 4 5
comments
print report bad tab
2 comments total.
0 reply
soccerfn59 30 Jul 12, 2005 12:00 AM

actually i tabbed this and i think it might actually be like this on the whole thing instead

e-----1------1-------1-------1-----|
b------1------1-------1-------1----|
g---2------2-----------------------|
d-0------0------3-------3----------| 2x intro
a--------------1-------1-----------|
e----------------------------------|
and the same thing here when its like this
All I Never Wanted Tab by Diana Degarmo, www.Ultimate-Guitar.Com · All I Never Wanted Tab @ 911Tabs.Com


i sortof like this song since i can relate to it so when i found out that no one else
tabbed it i just had to.

e----1-------1-------1-------1-----|
b-----1-------1-------1-------1----|
g----------------------------------|
d--5-------5-----------------------| 2x intro
a-3------3-------1-------1---------|
e----------------------------------|

0 reply
soccerfn59 30 Jul 12, 2005 12:00 AM

ignor the 2x intro its just for the whole thing

guest
You may want to rate the tab now too:
select rating
Wanna post a correction for this tab? Suggest correction