Oops, an error
Loading. Please wait.

Im Gonna Make You Love Me bass

version 1
version 1

Whole song

Interactive

109 views 6 this week
no commentswrite comment
1 2 3 4 5
3 more votes to show rating
add to favorites
×
Save as Personal and add changes to this tab that will be seen only by you. Learn more ›
×
You can save this tab as Personal to edit and correct it or add notes. All changes will be seen only by you. Learn more »
launch autoscroll
font size
0
reset
guitar tuner
edit
Autoscroll
slow
fast
+/-
esc
set tempo
stop
Author
Difficulty
I'M GONNA MAKE YOU LOVE ME (Bassline)

As recorded by Diana Ross And The Supremes & The Temptations
(From the 1968 Album DIANA ROSS & THE SUPREMES JOIN THE TEMPTATIONS)

Words and Music by Kenneth Gamble, Leon Huff & Jerry Ross

Transcribed by Slowhand


Gtr I (E A D G) - 'James Jamerson - Bass'


 Intro
  Q=98
 4/4
  Gtr I
  Q.   E Q.   E   Q.   E Q.   E   Q.   E Q.   E   Q.   E Q.   E
|---------------|---------------|---------------|---------------|
|---------------|---------------|---------------|---------------|
|-5----5-5----5-|-5----5-5----5-|-5----5-5----5-|-5----5-5----5-|
|---------------|---------------|---------------|---------------|


  Q.   E Q.   E   Q.   E Q.   E   Q.   E Q.   E   Q.   E Q.   S S
|---------------|---------------|---------------|-----------------||
|---------------|---------------|---------------|-----------------||
|-5----5-5----5-|-5----5-5----5-|-5----5-5----5-|-5----5-5----5---||
|---------------|---------------|---------------|---------------5-||


 1st Verse
  E E +E. S S S E E E   Q  +E. S E E +E  S S
|---------------------|----------------------|
|---------------------|----------------------|
|---------0---5-2-3-4-|-5--(5)---5-5-(5)-7-5-|
|-3-3-(3)---3---------|--------5-------------|


  E E +E. S E E E E   Q.   S S S E S E E
|-------------------|------7-9-7-5-7-----|
|-------------------|--------------------|
|---------0---2-3-4-|-5--------------5-7-|
|-3-3-(3)---3-------|--------------------|


  E E +E. S S S E E E   Q  +E. S E E +E  S S
|---------------------|----------------------|
|-5-5-(5)---5---------|----------------------|
|---------5---5---3-4-|-5--(5)---5-5-(5)-7-5-|
|---------------7-----|--------5-------------|


  E E +E. S E. S E E   E S S +S  S E S E S E E
|--------------------|--------------------------|
|--------------------|--------------------------|
|---------0----0-----|-----------------------7--|
|-3-3-(3)---3----2-1-|-0-0-2-(2)-2-4-4-5-5-7----|


  Q  E E +E  E Q    Q  E E +E  E S S S S   E E +E  S S E E +S  S S S
|-----------------|----------------------|---------------------------|
|-----------------|----------------------|---------------------------|
|-----------------|----------------------|---------5-7-----------5---|
|-5--5-7-(7)-7-7--|-5--5-7-(7)-7-7-0-3-4-|-5-5-(5)-----5-5-(5)-7---7-|


  E. S S S E +S  S S S E E
|--------------------------||
|--------------------------||
|-5----5---5-(5)---5---5-0-||
|----7---7-------7---7-----||


 Chorus
  E E +S  S S S E E +E. S   E E +E. S E E +S  S S S
|-------------------------|-------------------------|
|-------------------------|-------------------------|
|-1-1-(1)---1---0-0-(0)-0-|---------1---------0-1-2-|
|---------1---1-----------|-3-3-(3)---1-1-(1)-------|


  E E E S S E E +S  S S S   E E +E. S E E S S S S   E E +S  S S S E E +E. S
|-------------------------|-----------------------|-------------------------|
|-------------------------|-----------------------|-------------------------|
|-3-3---3---1-1-(1)---1---|-0-0-(0)-0---------1-3-|-1-1-(1)---1---0-0-(0)-0-|
|-----3---3---------3---3-|-----------1-1-1-3-----|---------1---1-----------|


  E E +E. S E E +S  S S S   E E +S  S S S E E +S  S S S   Q  E E +Q   Q
|-------------------------|-----------------------------|-----------------||
|-------------------------|-----------------------------|-----------------||
|---------1---------0-1-2-|-3-3-(3)---3-2-1-1-(1)---1---|-0--0-5-(5)--5---||
|-3-3-(3)---1-1-(1)-------|---------3-------------3---3-|-----------------||


 2nd Verse
  E E +E. S S E. E E   E E +E. S E E S S S S   E E +E. S S S E E E
|--------------------|-----------------------|---------------------|
|--------------------|-----------------------|---------------------|
|-----------5-2--3-4-|-5-5-(5)---5-5-7-5-----|---------0---5-------|
|-3-3-(3)-x----------|---------5---------7-5-|-3-3-(3)---3---7-8-9-|


  E E +E. S E S S S S S S   E E +E. S S S E E E   E E +E. S E E S S S S
|---------7-----7---------|---------------------|------------------------|
|---------------------5---|-5-5-(5)---5---------|------------------------|
|-5-5-(5)---5-5---5-7---7-|---------5---5-2-3-4-|-5-5-(5)---5-5-7-5------|
|-------------------------|---------------------|---------5---------7-5--|


  E E +E. S E E +E  S S   E S S +S  S E S E S E E   Q  E E +E  E Q
|-----------------------|-------------------------|-----------------|
|-----------------------|-------------------------|-----------------|
|---------2-------------|-----------------------7-|-----------------|
|-3-3-(3)---3-3-(3)-3-2-|-0-0-2-(2)-2-4-4-5-5-7---|-5--5-7-(7)-7-7--|


  Q  E E +E  E S S S S   E E +E. S E E +S  S S S   E E +E  S S E E E E
|----------------------|-------------------------|-----------7---------||
|----------------------|-------------------------|---------7-----------||
|----------------------|---------7---------2-3-4-|-5-5-(5)-----5-5-5-0-||
|-5--5-7-(7)-7-7-0-3-4-|-5-5-(5)---5-5-(5)-------|---------------------||


 Chorus
  E E +E. S E Q  S S   E E +E. S E E +S  S S S   E E E S S E E +S  S S S
|--------------------|-------------------------|--------------------------|
|--------------------|-------------------------|--------------------------|
|-1-1-(1)-1-0-0--0---|-------------------0-1-2-|-3-3---3---1-1-(1)---1----|
|------------------4-|-3-3-(3)-3-1-1-(1)-------|-----3---3---------3---3--|


  E E +E. S E E +S  S S S   E E +S  S S S E E +E. S   E E +E. S E E +S  S S S
|-------------------------|-------------------------|--------------------------|
|-------------------------|-------------------------|--------------------------|
|-0-0-(0)-0-----------1---|-1-1-(1)---1---0-0-(0)-0-|-------------------0-1-2--|
|-----------1-1-(1)-3---3-|---------1---3-----------|-3-3-(3)-3-1-1-(1)--------|


                                                 Bridge
  E E +S  S S S E E +S  S S S   Q  E E +Q   Q     W          W          W
|-----------------------------|----------------||----------|----------|------|
|-----------------------------|----------------||----------|----------|------|
|-3-3-(3)---3---1-1-(1)---1---|-0--0-5-(5)--5--||----------|----------|------|
|---------3---3---------3---3-|----------------||----------|----------|------|


  W          W          W          E E +E. S E. S E S S
|----------|----------|----------|----------------------|
|----------|----------|----------|-----------5----5-4-3-|
|----------|----------|----------|---------5----5-------|
|----------|----------|----------|-3-3-(3)--------------|


  E. S S S S S E S S S S S S   Q  E E +E  E Q    Q  E E +E  E S S S S
|----------------------------|-----------------|----------------------|
|-2--0-----------------------|-----------------|----------------------|
|------2-0-------------------|-----------------|----------------------|
|----------4-2-0-0-2-3-0-4-0-|-5--5-7-(7)-7-7--|-5--5-7-(7)-7-7-0-3-4-|


  E E +E. S E Q  S S   E Q  E +E  E E E
|--------------------|------------------||
|--------------------|------------------||
|---------7------3-4-|-5-5--5-(5)-5-5-0-||
|-5-5-(5)---5-5------|------------------||


 Out-Chorus
  E E +E. S E E +E. S   E E +E. S E E +E. S
|---------------------|---------------------|
|---------------------|---------------------|
|-1-1-(1)-1-0-0-(0)-0-|---------1---------1-|
|---------------------|-3-3-(3)---1-1-(1)---|


  E E +S  S S S E E +E. S   E E +E. S E E S S S S   E E +S  S S S E E +E. S
|-------------------------|-----------------------|--------------------------|
|-------------------------|-----------------------|--------------------------|
|-3-3-(3)---3-2-1-1-(1)---|-0-0-(0)-0---------1---|-1-1-(1)---1---0-0-(0)-0--|
|---------3-------------3-|-----------1-1-1-3---3-|---------1---1------------|


  E E +E. S E E +S  S S S
|-------------------------|
|-------------------------|
|---------1---------0-1-2-|
|-3-3-(3)---1-1-(1)-------|


  E E +S  S S S E E +S  S S S   E E +E. S E E S S S S
|-----------------------------|------------------------|
|-----------------------------|------------------------|
|-3-3-(3)---3-2-1-1-(1)---1---|-0-0-(0)-0---------1----|
|---------3-------------3---3-|-----------1-1-1-3---3--|


  E E +E. S E E +E. S   E E +E. S E E +S  S S S
|---------------------|-------------------------|
|---------------------|-------------------------|
|-1-1-(1)-1-0-0-(0)-0-|---------1---------0-1-2-|
|---------------------|-3-3-(3)---1-1-(1)-------|


  E E +E. S E E +E. S   E E E. S E E S S S S
|---------------------|----------------------|
|---------------------|----------------------|
|-3-3-(3)-3-1-1-(1)-1-|-0-0-0--0---------1---|
|---------------------|----------1-1-1-3---3-|


  E E E S S E E +E. S   E E +E. S E E +S  S S S   E E +S  S S S E E +Q
|---------------------|-------------------------|------------------------*|
|---------------------|-------------------------|------------------------*|
|-1-1---1---0-0-(0)-0-|---------1---------0-1-2-|-3-3-(3)---3-2-1-1-(1)--*|
|-----1---3-----------|-3-3-(3)---1-1-(1)-------|---------3--------------*|


Duration Legend
---------------
W - whole; H - half; Q - quarter; E - 8th; S - 16th; T - 32nd; X - 64th; a - acciaccatura
+ - note tied to previous; . - note dotted; .. - note double dotted
Uncapitalized letters represent notes that are staccato (1/2 duration)
Irregular groupings are notated above the duration line
Duration letters will always appear directly above the note/fret number it represents the
duration for.  Duration letters with no fret number below them represent rests.  Multi-
bar rests are notated in the form Wxn, where n is the number of bars to rest for.  Low
melody durations appear below the staff

Tablature Legend
----------------
 h   - hammer-on
 p   - pull-off
 b   - bend
 pb  - pre-bend
 r   - bend release (if no number after the r, then release immediately)
 /\  - slide into or out of (from/to "nowhere")
 s   - legato slide
 S   - shift slide
  - natural harmonic
[n]  - artificial harmonic
n(n) - tapped harmonic
 ~   - vibrato
 tr  - trill
 T   - tap
 TP  - trem. picking
 PM  - palm muting
\n/  - tremolo bar dip; n = amount to dip
 \n  - tremolo bar down
 n/  - tremolo bar up
/n\  - tremolo bar inverted dip
 =   - hold bend; also acts as connecting device for hammers/pulls
 <>  - volume swell (louder/softer)
 x   - on rhythm slash represents muted slash
 o   - on rhythm slash represents single note slash

Misc Legend
-----------
 |  - bar
||  - double bar
||o - repeat start
o|| - repeat end
*|  - double bar (ending)
 :  - bar (freetime)
 $  - Segno
 &  - Coda
Tempo markers -  = BPM(8/16=s8/s16), where s8 = swing 8ths, s16 = swing 16ths




I'm gonna do all the things for you
A girl wants a man to do, oh, baby
I'll sacrifice for you
I'll even do wrong for you, oh, baby

Every minute, every hour
I'm gonna shower you
With love and affection
Look out, it's comin' in your direction

And I'm, I'm gonna make you love me
Oh, yes I will, yes I will
I'm gonna make you love me
Oh, yes I will, yes I will

Look here, my love is strong, you see
I know you'll never get tired of me, oh baby
And I'm gonna use every trick in the book
I'll try my best to get you hooked, hey baby

And every night, every day
I'm gonna say
I'm gonna get you, I'm gonna get you
Look out boy 'cause I'm gonna get you

I'm gonna make you love me
Oh, yes I will, yes I will
And I'm gonna make you love me
Oh, yes I will, you know I will

Every breathe I take
And each and every step I make
Brings me closer, baby
Closer to you

And with each beat of my heart
For every day we're apart
I'll hunger for every wasted hour

And I, every night and every day
I'm gonna get you, I'm gonna get you
Look out 'cause I'm gonna get you

I'm gonna make you love me
Oh, yes I will, yes I will
I'm gonna make you love me
Oh, yes I will, yes I will

I'm gonna make you love me
Oh, yes I will, yes I will
I'm gonna make you love me
Yes I will, yes I will
Suggest correction
Creating personal tab
Creating personal tab
You can edit any tab online and save it as your Personal.

You can edit, replace or remove any tab part or add personal notes – all changes will be seen only by you.

Personal tabs can be accessed anytime from any device, even offline.
Learn more »
Give kudos to tab author, rate the tab!
1 2 3 4 5
comments
print report bad tab
guest
You may want to rate the tab now too:
select rating
Wanna post a correction for this tab? Suggest correction