Oops, an error
Loading. Please wait.

Spring Breathes Live chords

544 views 3 this week
no commentswrite comment
1 2 3 4 5
2 more votes to show rating
add to favorites
×
Save as Personal and add changes to this tab that will be seen only by you. Learn more ›
×
You can save this tab as Personal to edit and correct it or add notes. All changes will be seen only by you. Learn more »
launch autoscroll
font size
0
reset
transpose
0
reset
simplify chords
display chords
guitar tuner
edit
Autoscroll
slow
fast
+/-
esc
set tempo
stop
Author
Difficulty
Strumming
There is no strumming pattern for this song yet. and get +5 IQ
(Live at NPR Version -- For original key, transpose +3)

G                  C                G
How does it feel to be in love again?
G                  C            Bm
Perhaps this time won’t feel so bad
       C                  D       G              Gmaj7
And I pretend it’s not the way it was before
       Cm             D           Gm            C
But even now, I tremble with the thought of more

Em              G 
Will we still bed together?
F#m                  G
Lord knows that I can’t fly
D     Am     A
I’m asking how
(Stop)
To love you


[Transition]

C D G   C D G   C D A


[Riff]
e|---------------3-----------------------------------------------|
B|---------------3-----------------------------------------------|
G|---------------0-----------------------------------------------|
D|-2-0----0------0-----------------------------------------------|
A|-----3----3-2--2-----------------------------------------------|
E|---------------3-----------------------------------------------|

G  Bm Bm7  F  C G

Bm                         Em Em7 
Strange, I don’t even need this
      F                  C
Would things be better if I never met her?
G
Doubt I know
           Bm
Though it shows
                 Em    Em7
I can’t even speak it
       C                A
But it happens time and again
      C                  A
The frosted bit to the skin
C                    G
Lay me down on the frozen ground
                    E   E7
My eyes begin to spin

A                        G
Would you stay if I was leaving?
A                     G
On the road, another season
A                         G
Hard for me to see your reason
F   C  G
Oh

            Bm
So pour the wine
                Em Em7
Helps my conversations
F                C
We’ll talk easy, have another with me
G
Doubt I know
        Bm
And it shows
                       Em  Em7
And everyone sees but you
C                   A
But it happens time again
C           A
The frosted bit to the skin
C                  G
Lay me down on the frozen ground
                  E     E7
My eyes begin to spin

A                         G
Would you stay if I was leaving?
A                     G
On the road, another season
A                        G
Hard for me to see your reason
F   C  G
Oh


[Bridge]
Bass:
G|---------------------------------------------------------------|
D|---------------------------------------------------------------|
A|----3-5---3-5----3-5-------------------------------------------|
E|-3------3------3-----3-----------------------------------------|

G C D G C D G C D G


[Transition]

F  G  F  G 


[Fast Chords/Riff] 
E D C D C B C B A B A G
e|---------------------------------------------------------------|
B|---------------------------------------------------------------|
G|---------------------------------------------------------------|
D|---------------------------------------------------------------|
A|---------------------------------------------------------------|
E|-12-10-8-10-8-7-8-7-5-7-5-3------------------------------------|
F F F F G
F F F F G
F                          G
How does it feel to be in love again?
F                         G
How does it feel to be in love?
F F F F
G
There’s nowhere left to run
F F F F
G
So let love be love

            
            
Suggest correction
Creating personal tab
Creating personal tab
You can edit any tab online and save it as your Personal.

You can edit, replace or remove any tab part or add personal notes – all changes will be seen only by you.

Personal tabs can be accessed anytime from any device, even offline.
Learn more »
Give kudos to tab author, rate the tab!
1 2 3 4 5
comments
print report bad tab
guest
You may want to rate the tab now too:
select rating
Wanna post a correction for this tab? Suggest correction