Oops, an error
Loading. Please wait.

Anseio My Soul Longs Tab

205 views 1 this week
no commentswrite comment
1 2 3 4 5
3 more votes to show rating
add to favorites
launch autoscroll
font size
0
reset
how to read this tab
guitar tuner
Autoscroll
slow
fast
+/-
esc
set tempo
stop
Help us to improve Ultimate-Guitar.com Take our survey!
×
Author
Anseio(My Soul Longs)
Diante do Trono

Tom: F  

Intro: Bb   F   Dm7   C

E|-----------------------------------------------------------------------------------------|
B|-----3--------------5------------------3---------------5---------------------------------|
G|--5--------------5-----------------5---------------5-------------------------------------|
D|-----------------------------------------------------------------------------------------|
A|-----------------------------------------------------------------------------------------|
E|-----------------------------------------------------------------------------------------|

   Bb             F                 Gm7             Dm7
Leva-me bem mais perto, em Tua presença, em Tua glória
   Bb             F                 Gm7             Dm7
Chama-me mais profundo, além do véu, em Tua    glória

( Bb  F )

E|-------------------------------|
B|-----3--------------5----------|
G|--5--------------5-------------|
D|-------------------------------|
A|-------------------------------|
E|-------------------------------|

   Bb            F             Gm7              Dm7
Espirito desca agora, eu me aproximo de Tua glória
   Bb            F                  Gm7                   Dm7

Cobre-me com Tua graça, sou filho que ama,     Tua     glória

       F    C7sus      C7       Gm7                        Bb
Anseio por mais de Ti, com meu      respirar, com meu caminhar
       F    C7sus      C7        Gm7                   Bb
Eu queimo de amor por Ti , com desejo santo, queima um fogo santo

( Bb  F )

E|-------------------------------|
B|-----3--------------5----------|
G|--5--------------5-------------|
D|-------------------------------|
A|-------------------------------|
E|-------------------------------|

   Bb            F           Gm7               Dm7
Espirito desca agora, eu me aproximo de Tua glória
   Bb            F                   Gm7                   Dm7

Cobre-me com Tua graça, sou filho que ama,     Tua     glória

       F         C7sus      C7       Gm7                    Bb
Anseio por mais de Ti, com meu      respirar, com meu caminhar
       F          C7sus      C7            Gm7                     Bb
Eu queimo de amor por Ti ,            com desejo santo, queima um fogo santo

Solo: F  C  Gm7  Bb

E|-----------------------------------------------------------------------------------------|
B|----13---------------10--11--13----------13---------------10--11--13---------------------|
G|-----------9--10--12----------------------------9--10--12--------------------------------|
D|-----------------------------------------------------------------------------------------|
A|-----------------------------------------------------------------------------------------|
E|-----------------------------------------------------------------------------------------|

E|--------------------------------------13--12---------------------------------------------|
B|----13---------------10--11--13---------------15-13--12-12---12/13--13-------------------|
G|-----------9--10--12---------------------------------------------------------------------|
D|-----------------------------------------------------------------------------------------|
A|-----------------------------------------------------------------------------------------|
E|-----------------------------------------------------------------------------------------|

E|----------------17--18--20----------------17--18--20---------------17--18--20------------|
B|----17--18--20----------------17--18--20---------------17--18--20------------------------|
G|-----------------------------------------------------------------------------------------|
D|-----------------------------------------------------------------------------------------|
A|-----------------------------------------------------------------------------------------|
E|-----------------------------------------------------------------------------------------|

E|-----------------------------------------------------------------------------------------|
B|---17--18--17--15--13-13-13/18-----------------------------------------------------------|
G|-----------------------------------------------------------------------------------------|
D|-----------------------------------------------------------------------------------------|
A|-----------------------------------------------------------------------------------------|
E|-----------------------------------------------------------------------------------------|

Refrão:
  F                       C7               Gm7               Bb
Tua glória         venha, o céu na terra,        o céu na terra
   F                      C7               Gm7               Bb
Tua glória         venha, o céu na terra,        o céu na terra
   F                      C7               Gm7               Bb
Tua glória         venha, o céu na terra,        o céu na terra
   F                      C7               Gm7               Bb
Tua glória         venha, o céu na terra,        o céu na terra

       F          C7sus     C7       Gm7               Bb
Anseio por mais de Ti, com meu      respirar, com meu caminhar
       F         C7sus      C7       Gm7                         Bb
Eu queimo de amor por Ti ,            com desejo santo, queima um fogo santo

Solo Final:

E|-----------------------------------------------------------------------------------------|
B|----13---------------10--11--13----------13---------------10--11--13---------------------|
G|-----------9--10--12----------------------------9--10--12--------------------------------|
D|-----------------------------------------------------------------------------------------|
A|-----------------------------------------------------------------------------------------|
E|-----------------------------------------------------------------------------------------|

E|--------------------------------------12p13-13-12-12/10-10 10/9-9-9/13-------------------|
B|----13---------------10--11--13----------------------------------------------------------|
G|-----------9--10--12---------------------------------------------------------------------|
D|-----------------------------------------------------------------------------------------|
A|-----------------------------------------------------------------------------------------|
E|-----------------------------------------------------------------------------------------|
Suggest correction
Give kudos to tab author, rate the tab!
1 2 3 4 5
comments
print report bad tab
guest
You may want to rate the tab now too:
select rating
Wanna post a correction for this tab? Suggest correction