Oops, an error
Loading. Please wait.

Itsumo Tab

version 3
version 3

Whole song

1,304 views 3 this week
1 commentread comment
1 2 3 4 5
x 3
add to favorites
launch autoscroll
font size
0
reset
how to read this tab
guitar tuner
Autoscroll
slow
fast
+/-
esc
set tempo
stop
Author
artist: ITSUMO
by: Dice & K9
tabbed by: H4RD h_4_r_d_001@yahoo.com

Ewan ko sa iba... frst tym ko nka here ito na music since September 7,2003 ... ewan ko
tlga last yr pa iyan.. na download ko yan na music sa intrnet.. kya nag gwa ako ng tab
yan.. noong hnd pa yan uso... ngaun.. ewan ko na.. itsumo ka "sumo" means luma na... pro
anyway e2 ang nalalamn ko na tab...

Pro kailangan pla e2 ng dalawang guitar....

INTRO / VERSE / CHORUS: CONTINUE UNTIL END..


GUITAR 1

e|---------------------------|
b|---------------------------|
g|---------------------------|
d|---------------------------|
a|--0-2-33--33--3-22--22-----|
e|---------------------------|

                                "OR"

e|---------------------------|
b|---------------------------|
g|---------------------------|
d|---------------------------|
a|---------------------------|
e|--1-3-44—44--4-33--33------|


GUIATR 2

e|---4----4-----------------|
b|--2---------2-2-----------|
g|-3----3-------------------|
d|--------------------------|
a|--------------------------|
e|--------------------------|

                              "OR"

e|---3----3-------------------|
b|--1---------1-1-------------|
g|-2----2---------------------|
d|----------------------------|
a|----------------------------|
e|----------------------------|


kung tatlong guitar.. ok tlga e2..

Chords in Chorus at sa Intro dn pla... C..D..Em.. kayo na bhala kng ano ang strumming n2..

Pro kng mron kau organ, must ok tlga e2...

Just ask me kng mron mali sa aking tab... h_4_r_d_001@yahoo.com..
Suggest correction
Give kudos to tab author, rate the tab!
1 2 3 4 5
comments
print report bad tab
1 comment total.
0 reply
ZONE4ever 10 Jan 13, 2007 07:30 PM

mas okei p0h kng may tap di bah? ung ganto p0h

e|---------------------------|
b|------------------------------|
g|--------t---t-----t-----------|
d|--------a---a-----a-----------|
a|--------p---p-----p-----------|
e|--1-3-44—44--4-33--33---------|

suggest k0h lng p0h,per0 astig p0h ung tab nio! 5 stars!

guest
You may want to rate the tab now too:
select rating
Wanna post a correction for this tab? Suggest correction