Oops, an error
Loading. Please wait.

Complicated Tab

2,643 views 1 this week
1 commentread comment
1 2 3 4 5
1 last vote to show rating
add to favorites
launch autoscroll
font size
0
reset
how to read this tab
guitar tuner
×
Best way to learn
"Complicated"
Autoscroll
slow
fast
+/-
esc
set tempo
stop
artist: Dick Brave & the Backbeats
song: Complicated

tabbey by C. Becker (beckerc.konz@web.de)

I'm wondering why nobody has tabbed this song, yet. So I gonna do it.
Standard R'n'R...

Verse:		C		Am		F		G
(== Brigde)

Chorus:		Am	F			C		G


Some a groovy basic style for guitar and /or bassguitar...

Intro / Rhythm groove...
   C                       Am                      F
    |  |  |  |             |  |  |  |              |  |  |  |
e |----------------------|-----------------------|-------------------------|
B |----------------------|-----------------------|-------------------------|
G |----------------------|-----------------------|-------------------------|
D |------2---5----.//.---|----------------.//.---|------------------.//.---|
A |-3--------------------|------3---7------------|------0---4--------------|
E |----------------------|-5---------------------|-1-----------------------|

    G                   
    |  |  |  |                   
e |--------------------------------|                  
B |--------------------------------|                  
G |-------------------------------o|                  
D |---------------5-5-3-3-2-2-----o|                  
A |------2---5----------------5-5--|                  
E |-3------------------------------|                  


Chill out - what you yellin for? 
Lay back it's all been done before 
And if you could only let it be, you will see 

I like you the way you are 
When we're drivin in your car 
And you're talkin to me one-on-one when you become 

[Bridge]
Somebody else 
Round everyone else 
Watchin your back like you can't relax 
You tryin to be cool 
You look like a fool to me 
Tell me 

[Chorus]
Why'd complicated? 
I see the way you're actin' (so frustrated) 
Life's like this you 
You fall and you crawl and you break and you take what you get 
And you turnin into honestly, you promised me 
I'm never gonna find you fake it 
No No No 

You come over unannounced 
Dressed up like you're somethin' else 
Where you are and where it's at you see 
You're makin me 
Laugh out when you strike a pose 
Take off all your pretty clothes 
You know you're not foolin anyone when you become 

[Bridge]
Somebody else 
Round everyone else 
Watchin your back 
Like you can't relax 
You tryin to be cool 
You look like a fool to me 
Tell me 

[Chrous]
Why'd complicated? 
I see the way you're actin' (so frustrated) 
Life's like this you 
You fall and you crawl and you break and you take what you get 
And you turnin into honestly, you promised me 
I'm never gonna find you fake it 

No no no 
(no no no) 
No no 
(no no no) 
No no 
(no no no) 
No no 

[Chorus 2x]


Enjoy.
Suggest correction
Give kudos to tab author, rate the tab!
1 2 3 4 5
comments
print report bad tab
1 comment total.
0 reply
]GER[?$Y[0 10 Oct 10, 2005 03:05 AM

wow super n1, aber 1 kleiner fehler:e |-------------------------|
B |-------------------------|
G |-------------------------|
D |------------------.//.---|
A |------0---4--------------|
E |-1-----------------------|


e |-------------------------|
B |-------------------------|
G |-------------------------|
D |------------------.//.---| !
A |------0---3--------------|
E |-1-----------------------|


so is es dann komplett! könnte aber auch sein , dass ich mich irre
hehe ;) wäre cool wenn du noch n paar lieder dazu machen könntest, vom album, is nämlich ziemlich gut, danke cya :)

guest
You may want to rate the tab now too:
select rating
Wanna post a correction for this tab? Suggest correction