Oops, an error
Loading. Please wait.

Misirlou Tab

version 1
601,553 views 1,128 this week
21 commentsread comments
1 2 3 4 5
x 105
add to favorites
launch autoscroll
font size
0
reset
how to read this tab
guitar tuner
Autoscroll
slow
fast
+/-
esc
set tempo
stop
Help us to improve Ultimate-Guitar.com Take our survey!
×
Author
Tabbers playing skills
intermediate +
Song: Misirlou
Band: Dick Dale
Album: Guitar Hero II Soundtrack
Tuning: E A D G B e


[Intro]

e|---------------1---------------------------------|
B|---------------1---------------------------------|
G|---------------2---------------------------------|
D|---------------3---------------------------------|
A|-------------------------------------------------|
E|-------------------13-13-14-14-15-15-16-16-17-17-|

e|-------------------------------------------------|
B|-------------------------------------------------|
G|-------------------------------------------------|
D|-------------------------------------------------|
A|-------------------------------------------------|
E|-0-0-0-0-0-0-0-0-0-0-0-0-0-0-0-0-0-1-0-4-0-5-0-7-|

e|-------------------------------------------------|
B|-------------------------------------------------|
G|-------------------------------------------------|
D|-------------------------------------------------|
A|-------------------------------------------------|
E|-0-8-11-0-8-7-0-0-0-8-8-7-7-5-0-0-0-7-7-5-5-4-0--|

e|-------------------------------------------------|
B|-------------------------------------------------|
G|-------------------------------------------------|
D|-------------------------------------------------|
A|-------------------------------------------------|
E|-0-0-5-5-4-4-1-0-0-0-12-0-11-10-0-9-0-8-0-7-0-6--|

e|-----------------------|
B|-----------------------|
G|-----------------------|
D|-----------------------|
A|-----------------------|
E|-0-5-0-4-0-3-0-2-0-1-0-|


[Verse]

e|-----0-------0-------0-------0-------0-----------|
B|-----0-------0-------0-------0-------0-----------|
G|-----1-------1-------1-------1-------1-----------|
D|-----2-------2-------2-------2-------2-----------|
A|-----2-------2-------2-------2-------2-----------|
E|-0-------0-------0-------0-------0-------0--0--0-|

e|-----------------------------------12\-10\-8\-6\-|
B|-5-3-5-5---5-6-8-6-8-6-5--5-3-5-5----------------|
G|-------------------------------------------------|
D|-------------------------------------------------|
A|-------------------------------------------------|
E|-------------------------------------------------|

e|-------------------------------------------------|
B|-5-3-5-5---3--5-6--8-6-5--5-3-5-5-----------5--4-|
G|-------------------------------------------------|
D|-------------------------------------------------|
A|-------------------------------------------------|
E|-------------------------------------------------|

e|-----7-7-----7-7-----7-7-8---8---7---12-12-12-12-|
B|-3---7-7-----7-7-----7-7-8---8---7---------------|
G|-----8-8-8-8-8-8-8-8-8-8-9---9---8---------------|
D|-------------------------------------------------|
A|-------------------------------------------------|
E|-------------------------------------------------|

e|-11-11-11-11-10-10-10-10-9-9-9-9-8-8-8-8-7-7-7-7-|
B|-------------------------------------------------|
G|-------------------------------------------------|
D|-------------------------------------------------|
A|-------------------------------------------------|
E|-------------------------------------------------|

e|-----7-7-----7-7-----7-7-8---8---7---12-12-12-12-|
B|-----7-7-----7-7-----7-7-8---8---7---------------|
G|-8-8-8-8-8-8-8-8-8-8-8-8-9---9---8---------------|
D|-------------------------------------------------|
A|-------------------------------------------------|
E|-------------------------------------------------|

e|-11-11-11-11-10-10-10-10-9-9-9-9-8-8-8-8-7-7-7-7-|
B|-------------------------------------------------|
G|-------------------------------------------------|
D|-------------------------------------------------|
A|-------------------------------------------------|
E|-------------------------------------------------|

e|----5-5----5----5-7-9-7-5----3-3----3----3-5-7-5-|
B|----5-5------5---------------3-3------3----------|
G|-6--6-6--6----------------4--4-4--4--------------|
D|-------------------------------------------------|
A|-------------------------------------------------|
E|-------------------------------------------------|

e|----1-1----1----1-3-5-3--------------------------|
B|----1-1------1-----------------------------------|
G|-2--2-2--2---------------9-9-9-9-8-8-8-8-7-7-7-7-|
D|-------------------------------------------------|
A|-------------------------------------------------|
E|-------------------------------------------------|

e|-----------------------------------------|
B|-6-6-6-6-5-5-5-5-4-4-4-4-3-3-3-3-2---0---|
G|-----------------------------------------|
D|-----------------------------------------|
A|-----------------------------------------|
E|-----------------------------------------|

e|----5-5----5----5-7-9-7-5----3-3----3----3-5-7-5-|
B|----5-5------5---------------3-3------3----------|
G|-6--6-6--6----------------4--4-4--4--------------|
D|-------------------------------------------------|
A|-------------------------------------------------|
E|-------------------------------------------------|

e|----1-1----1----1-3-5-3-|
B|----1-1------1----------|
G|-2--2-2--2--------------|
D|------------------------|
A|------------------------|
E|------------------------|


[Guitar Break 1]

e|-----------------------------------------------------------------|
B|-----------------------------------------------------------------|
G|-----------------------------------------------------------------|
D|-----------------------------------------------------------------|
A|-----------------------------------------------------------------|
E|-0-0-0-0-0-0-0-0-0-0-0-0-0-0-0-12-12-0-0-0-0-0-0-0-0-0-0-0-0-0-0-|

e|---------------------------------------------------|
B|---------------------------------------------------|
G|---------------------------------------------------|
D|---------------------------------------------------|
A|---------------------------------------------------|
E|-12-12-0-0-13-13-0-0-16-16-0-0-17-17-0-0-19-19-0-0-|

e|---------------------------------------------------|
B|---------------------------------------------------|
G|---------------------------------------------------|
D|---------------------------------------------------|
A|---------------------------------------------------|
E|-16-16-0-0-20-20-0-0-19-19-0-0-17-17-0-0-19-19-0-0-|

e|---------------------------------------------------|
B|---------------------------------------------------|
G|---------------------------------------------------|
D|---------------------------------------------------|
A|---------------------------------------------------|
E|-17-17-0-0-16-16-0-0-17-17-0-0-16-16-0-0-13-13-0-0-|

e|---------------------------------------------------|
B|---------------------------------------------------|
G|---------------------------------------------------|
D|---------------------------------------------------|
A|---------------------------------------------------|
E|-16-16-0-0-12-12-0-0-0-0-11-0-0-0-0-10-0-9-0-8-0-7-|

e|-----------------------0--------------------------|
B|-----------------------0--------------------------|
G|-----------------------1--------------------------|
D|-----------------------2--------------------------|
A|-----------------------2--------------------------|
E|-0-6-0-5-0-4-0-3-0-2-0-0-----------------12\\-8\\-|


[Verse 2A]

e|------------------------------------------------------|
B|------------------------------------------------------|
G|------------------------------------------------------|
D|------------------------------------------------------|
A|------------------------------------------------------|
E|-0-0-0-0-0-0-1-1-4-4-4-4-5-5-5-5-7-7-7-7-7-7-8--11--8-|

e|-------------------------------------------------|
B|-------------------------------------------------|
G|-------------------------------------------------|
D|-------------------------------------------------|
A|-------------------------------------------------|
E|-0-----------12-12-12-12-11-11-11-11-10-10-10-10-|

e|-----------------------------------------|
B|-----------------------------------------|
G|-----------------------------------------|
D|-----------------------------------------|
A|-----------------------------------------|
E|-9-9-9-9-8-8-8-8-7-7-7-7-6-6-6-6-5-5-5-5-|

e|-------------------------------------------------------|
B|-------------------------------------------------------|
G|-------------------------------------------------------|
D|-------------------------------------------------------|
A|-------------------------------------------------------|
E|-0-0-0-0-0-0-1-1-4-4-4-4-5-5-5-5-7-7-7-7-8-8-8-8-11-11-|

e|-------------------------------------------------------|
B|-------------------------------------------------------|
G|-------------------------------------------------------|
D|-------------------------------------------------------|
A|-------------------------------------------------------|
E|-11-11-8-8-8-8-7---12-12-12-12-11-11-11-11-10-10-10-10-|

e|-----------------------------------------|
B|-----------------------------------------|
G|-----------------------------------------|
D|-----------------------------------------|
A|-----------------------------------------|
E|-9-9-9-9-8-8-8-8-7-7-7-7-6-6-6-6-5-5-5-5-|

e|-----------------------------------------------------|
B|-----------------------------------------------------|
G|-----------------------------------------------------|
D|-----------------------------------------------------|
A|-----------------------------------------------------|
E|-----8---7--8--7---5--7--5--7--5--1--0---12-12-12-12-|

e|-------------------------------------------------|
B|-------------------------------------------------|
G|-------------------------------------------------|
D|-------------------------------------------------|
A|-------------------------------------------------|
E|-11-11-11-11-10-10-10-10-9-9-9-9-8-8-8-8-7-7-7-7-|

e|-----------------------------------------------------|
B|-----------------------------------------------------|
G|-----------------------------------------9-9-9-9-8-8-|
D|-----------------------------------------------------|
A|-----------------------------------------------------|
E|-5---7---5--7--5---4--5--4--5--4--1--0---------------|

e|-------------------------------------|
B|-------------------------------------|
G|-8-8-7-7-7-7-6-6-6-6-5-5-5-5-4-4-4-4-|
D|-------------------------------------|
A|-------------------------------------|
E|-------------------------------------|

e|---------------------------------------|
B|---------------------------------------|
G|---------------------------------------|
D|---------------------------------------|
A|---------------------------------------|
E|-----8---7--8--7---5--7--5--7--5--1--0-|

e|----0-------0-------0------12-12-12-12-11-11-11-11-|
B|----0-------0-------0------------------------------|
G|----1-------1-------1------------------------------|
D|----2-------2-------2------------------------------|
A|----2-------2-------2------------------------------|
E|-0--0----0--0----0--0------------------------------|


e|-10-10-10-10-9-9-9-9-|
B|---------------------|
G|---------------------|
D|---------------------|
A|---------------------|
E|---------------------|


[Verse 2B]

e|-0-0-0-0-0-0-1-1-4-4-4-4-5-5-5-5-7-7-7-7-7-7-8-8-11-11-|
B|-------------------------------------------------------|
G|-------------------------------------------------------|
D|-------------------------------------------------------|
A|-------------------------------------------------------|
E|-------------------------------------------------------|

e|-11-11-8-8-8-8-0---19-19-19-19-18-18-18-18-17-17-17-17-|
B|-------------------------------------------------------|
G|-------------------------------------------------------|
D|-------------------------------------------------------|
A|-------------------------------------------------------|
E|-------------------------------------------------------|

e|-16-16-16-16-15-15-15-15-14-14-14-14-13-13-13-13-|
B|-------------------------------------------------|
G|-------------------------------------------------|
D|-------------------------------------------------|
A|-------------------------------------------------|
E|-------------------------------------------------|

e|-0-0-0-0-0-0-1-1-4-4-4-4-5-5-5-5-7-7-7-7-8-8-8-8-11-11-|
B|-------------------------------------------------------|
G|-------------------------------------------------------|
D|-------------------------------------------------------|
A|-------------------------------------------------------|
E|-------------------------------------------------------|

e|-11-11-8-8-8-8-0-7-------7-------7-------7-----7-----7--7--7-|
B|--------------------0-------0-------0-------0-----0----------|
G|-------------------------------------------------------------|
D|-------------------------------------------------------------|
A|-------------------------------------------------------------|
E|-------------------------------------------------------------|

e|-8-8-8-8-7-7-8-8-7---5--7--5--7--5---4----0------|
B|-------------------------------------------------|
G|-------------------------------------------------|
D|-------------------------------------------------|
A|-------------------------------------------------|
E|-------------------------------------------------|

e|-8-8-8-8-7-7-7-7-6-6-6-6-5-5-5-5-4-4-4-4-3-3-3-3-|
B|-------------------------------------------------|
G|-------------------------------------------------|
D|-------------------------------------------------|
A|-------------------------------------------------|
E|-------------------------------------------------|

e|-7------5---7---5---4--5--4--5--4---1------------|
B|-------------------------------------------------|
G|-------------------------------------------------|
D|-------------------------------------------------|
A|-------------------------------------------------|
E|-------------------------------------------------|

e|----0-------0-------0---0---0---0----------------|
B|----0-------0-------0---0---0---0----------------|
G|----1-------1-------1---1---1---1----------------|
D|----2-------2-------2---2---2---2----------------|
A|----2-------2-------2---2---2---2----------------|
E|-0--0----0--0----0--0---0---0---0---12\\\\\\\----|


[Bridge]

e|-------------------------------------------------------|
B|-------------------------------------------------------|
G|-------------------------------------------------------|
D|-7-----------------------------------------------------|
A|-7-----------------------------------------------------|
E|-5-5-5-5-5-5-5-5-5-5-5-5-5-5-5-5-5-5-5-5-5-5-5-3-3-3-3-|

e|-------------------------------------------------------|
B|-------------------------------------------------------|
G|-------------------------------------------------------|
D|---------9---------------------------------------------|
A|---------9---------------------------------------------|
E|-5-5-5-5-7-7-7-7-7-7-7-7-7-7-7-7-7-7-7-7-7-7-7-7-7-7-7-|

e|-------------------------------------------------------|
B|-------------------------------------------------------|
G|-------------------------------------------------------|
D|-----------------10------------------------------13----|
A|-----------------10------------------------------13----|
E|-5-5-5-5-7-7-7-7-8-8-8-8-8-8-8-8-7-7-7-7-8-8-8-8-11-11-|

e|-------------------------------------------------------|
B|-------------------------------------------------------|
G|-------------------------------------------------------|
D|-------------------------------------------------------|
A|-------------------------------------------------------|
E|-11-11-11-11-11-11-8-8-8-8-11-11-11-11-12-12-12-12-12--|

e|-------------------------------------------------------|
B|-------------------------------------------------------|
G|-------------------------------------------------------|
D|-------------------------------14----------------------|
A|-------------------------------14----------------------|
E|-12-12-12-12-12-12-12-12-12-12-12----------------------|


[Verse 3]

e|-8-8-8-8-7-7-8-8-7---5--7--5--7--5---4----0------|
B|-------------------------------------------------|
G|-------------------------------------------------|
D|-------------------------------------------------|
A|-------------------------------------------------|
E|-------------------------------------------------|

e|-8-8-8-8-7-7-7-7-6-6-6-6-5-5-5-5-4-4-4-4-3-3-3-3-|
B|-------------------------------------------------|
G|-------------------------------------------------|
D|-------------------------------------------------|
A|-------------------------------------------------|
E|-------------------------------------------------|

e|-7------5---7---5---4--5--4--5--4---1------------|
B|-------------------------------------------------|
G|-------------------------------------------------|
D|-------------------------------------------------|
A|-------------------------------------------------|
E|-------------------------------------------------|

e|----0-------0----0--0----------------------------|
B|----0-------0----0--0----------------------------|
G|----1-------1----1--1----------------------------|
D|-2--2----2--2----2--2----------------------------|
A|-------------------------------------------------|
E|-------------------------------------------------|


[Guitar Break 2]

e|-----------------------------------------------------|
B|-----------------------------------------------------|
G|-----------------------------------------------------|
D|-----------------------------------------------------|
A|-----------------------------------------------------|
E|-0-0-0-0-0-0-0-0-12-12-0-0-0-0-0-0-12-12-0-0-0-0-0-0-|

e|-----------------------------------------------------|
B|-----------------------------------------------------|
G|-----------------------------------------------------|
D|-----------------------------------------------------|
A|-----------------------------------------------------|
E|-12-12-0-0-0-0-0-0-12-12-0-0-11-11-0-0-10-10-0-0-9-9-|

e|-----------------------------------------------------|
B|-----------------------------------------------------|
G|-----------------------------------------------------|
D|-----------------------------------------------------|
A|-----------------------------------------------------|
E|-0-0-8-8-0-0-7-7-0-0-6-6-0-0-5-5-0-0-4-4-0-0-3-3-0-0-|

e|-------------------------------------------------|
B|-------------------------------------------------|
G|-------------------------------------------------|
D|-------------------------------------------------|
A|-------------------------------------------------|
E|-2-2-0-0-1-1-0-0---------------------------------|


[Refrain]

e|---------------------------------------------------------------|
B|---------------------------------------------------------------|
G|---------------------------------------------------------------|
D|-2---2---2---0-2-3---3---3---5-3-2---2---2---0-2-3---3---3-5-3-|
A|-2---2---2---0-2-3---3---3---5-3-2---2---2---0-2-3---3---3-5-3-|
E|-0---0---0---0-0-1---1---1---3-1-0---0---0---0-0-1---1---1-3-1-|

e|---------------------------------------------------------------|
B|---------------------------------------------------------------|
G|-------------------------------------9-9-9-8-8-8-8-7-7-7-7-6-6-|
D|-2---2---2---0-2-3---3---3---5-3-2-----------------------------|
A|-2---2---2---0-2-3---3---3---5-3-2-----------------------------|
E|-0---0---0---0-0-1---1---1---3-1-0-----------------------------|

e|-------------------------------------|
B|-6-6-5-5-5-5-4-4-4-4-3-3-3-3-2-2-2-2-|
G|-------------------------------------|
D|-------------------------------------|
A|-------------------------------------|
E|-------------------------------------|

e|---------------------------------------------------------------|
B|---------------------------------------------------------------|
G|---------------------------------------------------------------|
D|-2---2---2---0-2-3---3---3---5-3-2---2---2---0-2-3---3---3-5-3-|
A|-2---2---2---0-2-3---3---3---5-3-2---2---2---0-2-3---3---3-5-3-|
E|-0---0---0---0-0-1---1---1---3-1-0---0---0---0-0-1---1---1-3-1-|

e|-----------------------------------|
B|-----------------------------------|
G|-----------------------------------|
D|-2---2---2---0-2-3---3---3---5-3-2-|
A|-2---2---2---0-2-3---3---3---5-3-2-|
E|-0---0---0---0-0-1---1---1---3-1-0-|


[Outro]

e|-------------------------------------------------------|
B|-3-3-3-3-3-3-3-3-------0-------------------------------|
G|-------------------0-2---2-0---------------------------|
D|-----------------------------3-2-0-----0---------------|
A|-----------------------------------3-2---3-2-3-2-0-----|
E|---------------------------------------------------3-1-|

e|-0-0-0-0-0-0-0-0-0-0-0-0-0-0-0-0-0-0-0-0-----------1---|
B|-0-0-0-0-0-0-0-0-0-0-0-0-0-0-0-0-0-0-0-0-----------1---|
G|-1-1-1-1-1-1-1-1-1-1-1-1-1-1-1-1-1-1-1-1-----------2---|
D|-2-2-2-2-2-2-2-2-2-2-2-2-2-2-2-2-2-2-2-2-----------3---|
A|-2-2-2-2-2-2-2-2-2-2-2-2-2-2-2-2-2-2-2-2-----------3---|
E|-0-0-0-0-0-0-0-0-0-0-0-0-0-0-0-0-0-0-0-0-----------1---|

e|-3-----------5-----------17-17-17-17-17-17-17-17-------|
B|-3-----------5-----------------------------------17-20-|
G|-4-----------6-----------------------------------------|
D|-5-----------7-----------------------------------------|
A|-5-----------7-----------------------------------------|
E|-3-----------5-----------------------------------------|

e|-17--17-17--17--17--17---20--17-----------------------------|
B|---------------------------------20-17----------------------|
G|---------------------------------------19-17----------------|
D|---------------------------------------------19-17----------|
A|---------------------------------------------------19-17----|
E|---------------------------------------------------------20-|

e|----------------------------------|
B|----------------------------------|
G|----------------------------------|
D|--------------------------7--\\\\-|
A|--------------------------7--\\\\-|
E|-15/17--------------------5--\\\\-|


*******************
|\     Slide down  
|/     Slide up      
*******************
Suggest correction
comments
print report bad tab
21 comments total. Showing first comments.
+2 reply
ratmjb1212 40 Apr 29, 2007 11:12 PM

this tab is f ucking great. i like this version better, too.

0 reply
Rock Boy 110 May 27, 2007 01:07 PM

Thank you!

+5 reply
rocknroll22 203 Jun 02, 2007 05:04 PM

how does this only have 4 stars?

definitely 5-stars in my book

guest
You may want to rate the tab now too:
select rating
Wanna post a correction for this tab? Suggest correction