Oops, an error
Loading. Please wait.

Misirlou Tab

version 5
42,498 views 9 this week
3 commentsread comments
1 2 3 4 5
x 3
add to favorites
launch autoscroll
font size
0
reset
how to read this tab
guitar tuner
backing track
0:00
0:00
×
Best way to learn
"Misirlou"
Autoscroll
slow
fast
+/-
esc
set tempo
stop
Author
#----------------------------------PLEASE NOTE--------------------------------#
#This file is the author's own work and represents their interpretation of the#
#song. You may only use this file for private study, scholarship, or research.#
#-----------------------------------------------------------------------------#
#-- File created with Instab - http://www.pconline.com/~smcarey/instab.html --#
#-----------------------------------------------------------------------------#

Author/Artist: Dick Dale & The Del-Tones
Title: Misirlou

/ slide up
\ slide down
A Arpeggio



Tuning (c# A D f# a d), Down ~ 10%, (c#, D) Down ~ 20%
Live Standard Tuning, Down ~ 10%
Key: (D + C#)


Tremolo Pick Throughout


----|---|--------------------------------------------------------|---|
----|---|--------------------------------------------------------|---|
----|---|--------------------------------------------------------|---|
----|---|--------------------------------------------------------|---|
----|---|--------------------------------------------------------|---|
----|-2-|--14---13---12---11---10---9---8---7---6---5---4---4-7--|-2-|
  

  Intro



-----|---------------------------------------------|--|
-----|---------------------------------------------|--|
-----|---------------------------------------------|--|
-----|---------------------------------------------|2x|
-----|---------------------------------------------|--|
-13\-|-2----2--6--7--9----9---12--10---9------13\--|--|
   

  Main Riff




----|-------------------------------------------------------------------------------------|--|
----|--------------------------------------------------------------------------------7----|--|
----|--------------------------------------------------------------------------------5----|--|
----|--------------------------------------------------------------------------------6----|--|
----|-------------------------------------------------------------------------------------|--|
----|-10---9-10---9---7--9---7-9--7--6--6--9--9--7-9---7-9--7--6--7--6-7-6--6-3-2---------|--|
                                                                                     A



----|-----------------------------|
----|-----------------------------|
----|-----------------------------|
----|-----------------------------|
----|-----------------------------|
----|-----------------------------|
     Repeat main riff on d string.




----|--------------------------------------------------|
----|--------------------------------------------------|
----|--------------------------------------------------|
----|--------------------------------------------------|
----|--------------------------------------------------|
----|-7---7-8-9----8-9-10---9--10--13---10---13--14----|
  

  Interlude
Suggest correction
Give kudos to tab author, rate the tab!
1 2 3 4 5
comments
print report bad tab
3 comments total.
0 reply
marshmellow666 1,499 Sep 18, 2008 04:55 PM

who the hell plays it in d tuning?

0 reply
Saverain 5,335 Sep 19, 2008 01:37 PM

When arranged for guitar, D tuning fits better. Guitar is actually standard. The guitar part is included in the middle of tab, no need for D tuning if your just playing guitar part.

0 reply
Pelusteriano 3,836 Oct 03, 2015 10:48 AM

Lack of accuracy. I'm not really sure that tuning it's the fittest for the song, which is in E major, as shown in this video: https://youtu.be/WqXuSE-fo_4

guest
You may want to rate the tab now too:
select rating
Wanna post a correction for this tab? Suggest correction