Oops, an error
Loading. Please wait.

Misirlou Tab

version 5
4,467 views 3 this week
no commentswrite comment
1 2 3 4 5
3 more votes to show rating
add to favorites
launch autoscroll
font size
0
reset
how to read this tab
guitar tuner
backing track
0:00
0:00
Autoscroll
slow
fast
+/-
esc
set tempo
stop
Wenas, aki os dejo la k pa mi es la mejor banda sonoras k se
ha eho, y komo veia k nadie la ponia ahi va.

La kancion en si es facil, lo xungo es pillar el tempo k es
rapido d kojones, pero si os eskuxais la kancion lo sakareis.


E|---------|---------|---------|
B|---------|---------|---------|
G|---------|---------|---------|
D|---------|---------|---------|
A|---------|---------|---------|
E|-#-#-7s0-|-0-0-0-0-|-0-0-0-0-|


E|-----------|------------|---------|--------|
B|-----------|------------|---------|--------|
G|-----------|------------|---------|--------|
D|-----------|------------|---------|--------|
A|-----------|------------|---------|--------|
E|-0-0h1-4-5-|-7-7h8-11-8-|-7-7-7-7-|7-7-s-0-|


E|-----------|------------|---------|---------|
B|-----------|------------|---------|---------|
G|-----------|------------|---------|---------|
D|-----------|------------|---------|---------|
A|-----------|------------|---------|---------|
E|-0-0h1-4-5-|-7-7h8-11-8-|-7-7-7-7-|-7-7-7-7-|


E|-----------|-----------|---------|---------|
B|-----------|-----------|---------|---------|
G|-----------|-----------|---------|---------|
D|-----------|-----------|---------|---------|
A|-----------|-----------|---------|---------|
E|-8-7h8-7-5-|-7-5h7-5-1-|-4-4-4-4-|-4-4-4-4-|


E|-------------|-----------|---------|-7sssss0-|
B|-------------|-----------|---------|---------|
G|-------------|-----------|---------|---------|
D|-------------|-----------|---------|---------|
A|-------------|-----------|---------|---------|
E|-5h8-7h8-7-5-|-7-5h7-5-#-|-1-4-0-0-|---------|


E|-0-0h1-4-5-|-7-7h8-11-8-|-7-7-7-7-|7-7-7s0-|
B|-----------|------------|---------|--------|
G|-----------|------------|---------|--------|
D|-----------|------------|---------|--------|
A|-----------|------------|---------|--------|
E|-----------|------------|---------|--------|


E|0-0h1-4-5-|-7-7h8-11-8-|-7-7-7-7-|-7-7-7-7-|
B|----------|------------|---------|---------|
G|----------|------------|---------|---------|
D|----------|------------|---------|---------|
A|----------|------------|---------|---------|
E|----------|------------|---------|---------|


E|-8-7h8-7-5-|-7-5h7-5-1-|-4-4-4-4-|-4-4-4-4-|
B|-----------|-----------|---------|---------|
G|-----------|-----------|---------|---------|
D|-----------|-----------|---------|---------|
A|-----------|-----------|---------|---------|
E|-----------|-----------|---------|---------|


E|-8-7h8-7-5-|-7-5h7-5-#-|-1-4-0-0-|
B|-----------|-----------|-------0-|
G|-----------|-----------|---------|
D|-----------|-----------|---------|
A|-----------|-----------|---------|
E|-----------|-----------|---------|


E|-----------------|-----|----------|-----|---------|---------|
B|-----------------|-----|----------|-----|---------|---------|
G|-----------------|-----|----------|-----|---------|---------|
D|-----------------|-----|----------|-----|---------|---------|
A|-----------------|-0---|-=------0-|-2---|---#-0h2-|-3---2h3-|
E|-#-0-1-3-4-0-1-3-|-----|---55p4---|-----|---------|---------|


E|-------|-----|-----|---------------|-----------------|-----|
B|-------|-----|-----|---------------|-----------------|-----|
G|-------|-----|-----|---------------|-----------------|-----|
D|-------|-----|-----|---------------|-----------------|-----|
A|-6---6-|-7---|-----|-#-8p7h8-777-5-|-777-7p5h7-555-3-|-2---|
E|-------|-----|-----|---------------|-----------------|-----|


E|-----|--------------|---------|-------|-----------------|
B|-----|--------------|---------|-------|-----------------|
G|-----|--------------|---------|-------|-----------------|
D|-----|--------------|---------|-------|-----------------|
A|2----|#-5p3h5-333-2-|-2-0-2-0-|-------|---------------0-|
E|-----|--------------|---------|-1-0---|-0-1-3-4-0-1-3---|


E|---------|-----------|---------|-----------|-----------|
B|---------|-----------|---------|-----------|-----------|
G|---------|-----------|---------|-----------|-----------|
D|---------|-----------|---------|-----------|-----------|
A|-0-0-0-0-|-0-0-0-----|-2-2-2-2-|-2-2-2-0h2-|-3-3-3-2h3-|
E|---------|-------4h5-|---------|-----------|-----------|


E|-----------|---------|---------|-----------|-----------|---------|
B|-----------|---------|---------|-----------|-----------|---------|
G|-----------|---------|---------|-----------|-----------|---------|
D|-----------|---------|---------|-----------|-----------|---------|
A|-6-6-3h6-6-|-7-7-7-7-|-7-7-7-7-|-8-7h8-7-5-|-7-5h7-5-3-|-2-2-2-2-|
E|-----------|---------|---------|-----------|-----------|---------|


E|---------|-------------|---------|---------|---------|
B|---------|-------------|---------|---------|---------|
G|---------|-------------|---------|---------|---------|
D|---------|-------------|---------|---------|---------|
A|-2-2-2-2-|-5-3h5-3-2p0-|-#-0-2-0-|---------|---------|
E|---------|-------------|---------|-1-0-0-0-|-0-0-0-0-|


skizo_punk@
Suggest correction
Give kudos to tab author, rate the tab!
1 2 3 4 5
comments
print report bad tab
guest
You may want to rate the tab now too:
select rating
Wanna post a correction for this tab? Suggest correction