Oops, an error
Loading. Please wait.

Detroit Sandwich Tab

84 views 1 this week
1 commentread comment
1 2 3 4 5
2 more votes to show rating
add to favorites
launch autoscroll
font size
0
reset
how to read this tab
guitar tuner
Autoscroll
slow
fast
+/-
esc
set tempo
stop
Help us to improve Ultimate-Guitar.com Take our survey!
×
Author
-------------------------------------------------------------------------------
                             Detroit Sandwich - Dick Valentine
-------------------------------------------------------------------------------
Tabbed by: Mel
E-mail:melectricsix@gmail.com

This track is from a web series called Bite Me.

[intro]
e]---------------------------------------------------------------|
B]---------------------------------------------------------------|
G]---------------------------------------------------------------|
D]---------------------------------------------------------------|
A]---------------------------------------------------------------|
E]---10--10--10--10-10-/1-1--1--1-/10--10--10--10-10-/1-1--1--1--|x2

e]---------------------------------------------------------------|
B]---------------------------------------------------------------|
G]---------------------------------------------------------------|
D]---12--12--12--12-12-/3-3--3--3-/12--12--12--12-12-/3-3--3--3--|
A]---12--12--12--12-12-/3-3--3--3-/12--12--12--12-12-/3-3--3--3--|
E]---10--10--10--10-10-/1-1--1--1-/10--10--10--10-10-/1-1--1--1--|

[verse]
e]---------------------------------------------------|
B]---------------------------------------------------|
G]---------------------------------------------------|
D]--12-12-12-12-12-12-12-12--3-3-3-3-/5-5-5-5--------|
A]--12-12-12-12-12-12-12-12--3-3-3-3-/5-5-5-5--------|
E]--10-10-10-10-10-10-10-10--1-1-1-1-/3-3-3-3--------|x2

Doing business with the new philistines
Wrap your head around what all of it means
Black magic and a 10 dollar whore
Detroit sandwich I don't know anymore

e]--------------------------------------------------------------------|
B]--------------------------------------------------------------------|
G]--------------------------------------------------------------------|
D]-8--5--/12--12--12--12-12-/3-3--3--3--12--12--12--12-12--3-3--3--3--|
A]-8--5--/12--12--12--12-12-/3-3--3--3--12--12--12--12-12--3-3--3--3--|
E]-6--3--/10--10--10--10-10-/1-1--1--1-/10--10--10--10-10-/1-1--1--1--| x2

I wanna go to the casino
I wanna go to the casino
I wanna go to the casino
I wanna go to the casino

Now place your bets
And take your pints
And cast your lots to the sodomites
A temple to the demon
Where our church once stood
Purgatory Pizza
And it's no good

I wanna go to Dave and Busters
I wanna go to Dave and Busters
I wanna go to Dave and Busters
So I can be alone

e]--------------------------------------------------------------------|
B]--------------------------------------------------------------------|
G]--------------------------------------------------------------------|
D]-8--5--/12--12--12--12-12-/3-3--3--3--12--12--12--12-12--3-3--3--3--|
A]-8--5--/12--12--12--12-12-/3-3--3--3--12--12--12--12-12--3-3--3--3--|
E]-6--3--/10--10--10--10-10-/1-1--1--1-/10--10--10--10-10-/1-1--1--1--| x2

Waiting for sundown
Before we congregate
Let the games begin now
Let the games begin now
He's knocking at your door
And he's come to see your face

e]--------------------|
B]--------------------|
G]--------------------|
D]--------------------|
A]----------3-5-5-5-5-|
E]----5-3-5-----------|
And shit's getting a little bit weird tonight

Our souls melting as we all rewrite
The ancient scriptures of the Israelites
Message your mind in the warm blue light
Slap chop let me take a bite

I wanna put a shoe through my television
And elevate the political dialog
I wanna put a shoe through my television
And go out and buy a new pair of shoes
Suggest correction
Give kudos to tab author, rate the tab!
1 2 3 4 5
comments
print report bad tab
1 comment total.
0 reply
howardtny 71 Dec 02, 2013 02:36 AM

The U.S. version is "I wanna go to Dave and Busters"

guest
You may want to rate the tab now too:
select rating
Wanna post a correction for this tab? Suggest correction