Oops, an error
Loading. Please wait.

Alay Sa Nagkamalay Noong Dekada Nobenta tab

version 1
version 1

Whole song

1,083 views 1 this week
1 commentread comment
1 2 3 4 5
2 more votes to show rating
add to favorites
×
Save as Personal and add changes to this tab that will be seen only by you. Learn more ›
×
You can save this tab as Personal to edit and correct it or add notes. All changes will be seen only by you. Learn more »
launch autoscroll
font size
0
reset
how to read this tab
guitar tuner
edit
Autoscroll
slow
fast
+/-
esc
set tempo
stop
Artist: Dicta License
Song: Alay sa Nagkamalay noong Dekada Nobenta
Album: Paghilom
tabbed by clypeaster

not really the whole song... hehe... solo part...

ninakaw ko lng 'to sa live performance nila... hehe

|---------------------|--------------------|
|---------------------|--------------------|
|---------------------|--------------------|
|--5h7-7-5-4-5-4-5h7--|--5h7-7-5-4-5-4-----|
|---------------------|----------------5~--|
|---------------------|--------------------|


|-----------------------|
|-----------------------|
|-----------------------|
|--5h7-7-5-4-5-4-5-4----|
|--------------------5~-|
|-----------------------|

do the higer octave of above...

|----------------------------------------------------------------------|
|-----------------------13h15--------13h15-------13h15--13-------------|
|--12h14-14-12-11-12h14--------12h14-------12h14------------14--12-----|
|----------------------------------------------------------------------|
|----------------------------------------------------------------------|
|----------------------------------------------------------------------|

|----------------------------------|
|----------------------------------|
|--12h14-14-12-11-12-11-12-11------|
|-----------------------------12~--|
|----------------------------------|
|----------------------------------|

still trying to figure out the other parts of the song...

iamaweaponofmassdestruction@yahoo.com

            
            
Suggest correction
Creating personal tab
Creating personal tab
You can edit any tab online and save it as your Personal.

You can edit, replace or remove any tab part or add personal notes – all changes will be seen only by you.

Personal tabs can be accessed anytime from any device, even offline.
Learn more »
Give kudos to tab author, rate the tab!
1 2 3 4 5
comments
print report bad tab
1 comment total.
0 reply
kempot7264 140 Jan 09, 2006 03:42 AM

...

guest
Wanna post a correction for this tab? Suggest correction