Oops, an error
Loading. Please wait.

Here With Me Bass Tab

version 1
version 1

Whole song

Interactive

by Dido
1,189 views 1 this week
no commentswrite comment
1 2 3 4 5
please rate
add to favorites
launch autoscroll
font size
0
reset
guitar tuner
Autoscroll
slow
fast
+/-
esc
set tempo
stop
Help us to improve Ultimate-Guitar.com Take our survey!
×
Author
Difficulty
novice
This is my interpretation of the bass from the recording for the soundtrack Love 
Actually, so please make comments in reference to that. Also, it appears the bass on the 
recording is drop D tuning (refer to bars 3 and 4 of the chorus); this tab uses standard tuning.

Intro

G|-------------------------------------------------------------|
D|---------------4-------------------4-------------------------|
A|------------5-------------------5----------------------------|  X 2
E|--7---7--7---------5--7---7--7---------5---------------------|

Verse:

G|-------------------------------------------------------------|
D|---------------4-------------------4-------------------------|
A|------------5-------------------5----------------------------|  X 4
E|--7---7--7---------5--7---7--7---------5---------------------|

Pre:

G|-------------------------------------------------------------|
D|-------------------------------------------------------------|
A|----------7-10-7--------------7-10-7-------------------------|
E|--0-------------------0--------------------------------------|

G|-------------------------------------------------------------|
D|-------------------------------------------------------------|
A|----------9-12-9--------------9-12-9-------------------------|
E|--2-------------------2--------------------------------------|

Chorus:

G|-------------------------------------------------------------|
D|-------------------------------------------------------------|
A|-------------------------------------------------------------|
E|--3-------3--3--------3-------3--3---------------------------|

[note: this is tabbed for 4 string - I realise it is drop D on the recording]
G|-------------------------------------------------------------|
D|-------------------------------------------------------------|
A|--5-------5--5--------5-------5--5---------------------------|
E|-------------------------------------------------------------|

G|-------------------------------------------------------------|
D|-------------------------------------------------------------|
A|-------------------------------------------------------------|
E|--7-------7--7--------7-------7--7---------------------------|

G|-------------------------------------------------------------|
D|-------------------------------------------------------------|
A|-------------------------------------------------------------|
E|--5-------5--5--------5-------5--5---------------------------|

Break: (1 bar)

G|-------------------------------------------------------------|
D|-------------------------------------------------------------|
A|-------------------------------------------------------------|
E|--5\---------------------------------------------------------|

Verse:

G|-------------------------------------------------------------|
D|-------------------4------------------------4----------------|
A|-------------5-6-7--------------------5-6-7------------------|  X 6
E|--7--7---7-6------------5--7--7---7-6------------------------|

REPEAT CHORUS X 2

INTERLUDE of 4 bars - same as intro, no bass

REPEAT PreChorus no bass

REPEAT CHORUS X 2

OUTRO 4 bars - same as intro, no bass
Suggest correction
Give kudos to tab author, rate the tab!
1 2 3 4 5
comments
print report bad tab
guest
You may want to rate the tab now too:
select rating
Please do not post tabs as comments. Select "correction" instead!