Oops, an error
Loading. Please wait.

Here With Me Tab

version 3
version 3

Whole song

Interactive

by Dido
19,100 views 3 this week
1 commentread comment
1 2 3 4 5
excellent!
x 8
add to favorites
launch autoscroll
font size
0
reset
how to read this tab
guitar tuner
Tab Pro tools
  • play this tab
  • loop segment
  • change instrument
  • show fretboard
  • metronome
×
Best way to learn
"Here With Me"
Autoscroll
slow
fast
+/-
esc
set tempo
stop
Contributor
Difficulty
intermediate
Tabbed by: Dido fan
e-mail: dido@ten.lt
This is a really nice Dido song, the chords are made from the 2001 acoustic performance
TOTP.
To make the chord F#madd9-[24622x] easier I suggest to tune your guitar down one
to Eb, and put a capo on the first fret, so everything moves 1 fret forward, so the 
is
[35733x] and sounds the same.
Note that G major is not [320003] but [320033] so it's easier to move to the
chord.

Chords used:
A      - x02220
Asus2  - x02200
Asus   - x02230
Bm     - x24432
Dadd11 - 300032
Dmaj7  - xx0222
Emadd9 - 02400x
F#madd9- 24622x
G      - 320033

Metronome mark: q=88
Key: D major (##)


Intro:
E||--------------------------------------------------||
B||--------------------------------------------------||
G||--12-12-12-12-12-12-12-12-12-12-12-12-12-12-12-12-||
D||--12----------12----------12----------12----------||
A||--------------------------------------------------||
E||--------------------------------------------------||


Verse 1:
E||--------------------------------------------------|
B||--------------------------------------------------|
G||--12-12-12-12-12-12-12-12-12-12-12-12-12-12-12-12-|
D||--12----------12----------12----------12----------|
A||--------------------------------------------------|
E||--------------------------------------------------|

---------------------------------------------------||
-------------------------------------------------*-||
--11-11-11-11-11-11-11-11-11-11-11-11-11-11-11-11--||
--12----------12----------12----------12-----------||
-------------------------------------------------*-||
---------------------------------------------------||

I didn't hear you leave
I wonder how am I still here
And I don't want to move a thing
It might change my memory


Pre-chorus:
   Emadd9                     F#madd9
E||--------------------------|--------------------------||
B||-----------0-----------0--|-----------2-----------2--||
G||-----------0-----------0--|-----------2-----------2--||
D||--------4-----------4-----|--------6-----------6-----||
A||-----2-----------2--------|-----4-----------4--------||
E||--0-----------0-----------|--2-----------2-----------||
     Emadd9                                  F#madd9
Oh I am what I am, I’ll do what I want, But I can't hide


Chorus:
        G              Dadd11
I won't go, I won't sleep
        D                     Dmaj7
I can't breathe, until you're resting here with me
        Bm
I won't leave, I can't hide
        Asus2              Asus              A
I cannot be, until you're resting here with me


Verse 2:
              G                                                Bm
I don't wanna call my friends, they might wake me from this dream
            G                               Bm
And I can't leave this bed, risk forgetting all that's been

Pre-chorus:
     Emadd9                                  F#madd9
Oh I am what I am, I’ll do what I want, But I can't hide


Chorus:
        G              Dadd11
I won't go, I won't sleep
        D                     Dmaj7
I can't breathe, until you're resting here with me
        Bm
I won't leave, I can't hide
        Asus2              Asus        A
I cannot be, until you're resting here
        G              Dadd11
I won't go, I won't sleep
        D                     Dmaj7
I can't breathe, until you're resting here with me
        Bm
I won't leave, I can't hide
        Asus2              Asus              A
I cannot be, until you're resting here with me


Emadd9  F#madd9

     Emadd9                                  F#madd9
Oh I am what I am, I’ll do what I want, But I can't hide


Chorus:
        G              Dadd11
I won't go, I won't sleep
        D                     Dmaj7
I can't breathe, until you're resting here with me
        Bm
I won't leave, I can't hide
        Asus2              Asus        A
I cannot be, until you're resting here
        G              Dadd11
I won't go, I won't sleep
        D                     Dmaj7
I can't breathe, until you're resting here with me
        Bm
I won't leave, I can't hide
        Asus2              Asus              A
I cannot be, until you're resting here with me
comments
print report bad tab
1 comment total.
0 reply
cobblers89 wrote on April 13 2009, 07:36 pm

I think the F#madd9 is easy enough as it is. If you have trouble the same chord is used in 'Every breath you take' by The Police. If you practice the rhythm pattern for that you should soon be able to play it.
Sorry to sound patronising but my comment is directed at the beginners. When i first started i would of had a heart attack at that chord.

I want to post or [tab]
guest
You may want to rate the tab now too:
select rating
Please do not post tabs as comments. Select "correction" instead!