Oops, an error
Loading. Please wait.

Life For Rent Tab

version 1
version 1

Whole song

by Dido
14,513 views 6 this week
no commentswrite comment
1 2 3 4 5
accurate
x 15
add to favorites
launch autoscroll
font size
0
reset
how to read this tab
guitar tuner
Tab Pro tools
  • play this tab
  • loop segment
  • change instrument
  • show fretboard
  • metronome
×
Best way to learn
"Life For Rent"
Autoscroll
slow
fast
+/-
esc
set tempo
stop
Contributor
-------------------------------------------------------------------------------
                             Life for Rent-Dido
-------------------------------------------------------------------------------
Tabbed by:Jeff Kamungu
Email:geoffykom@yahoo.com

Tuning:Standard
Intro  Am                F              Am                F
e|---------0--0--|-------------1---|-----------0--|-----------1--------------|
B|---------1--1--|---------1---1---|--------1--1--|--------1--1--------------|
G|------2--------|------2----------|-----2--------|-----2-------------0------|
D|--2------------|--3--------------|--2-----------|--3------------3----------|
A|---------------|-----------------|--------------|--------------------------|
E|---------------|-----------------|--------------|--------------------------|
        Am                F                Am               F
e|---------0--0--|--------------1--|-------------0--|--------------1---------|
B|---------1--1--|----------1---1--|----------1--1--|----------1---1---------|
G|-----2---------|------2----------|------2---------|------2-----------------|
D|--2------------|--3--------------|--2-------------|--3---------------------|
A|---------------|-----------------|----------------|------------------------|
E|---------------|-----------------|----------------|------------------------|
       Dm                   G7             C             G|
e|-------------------|-------------7--|------------|--3-----3--(0)-----------|
B|--------------6----|---------6---6--|--5-----5---|--3-----3--(0)-----------|
G|----------7---7----|------7---------|--5-----5---|--4-----4--(0)-----------|
D|------7------------|--5-------------|--5-----5---|--5-----5--(0)------------|
A|--5----------------|----------------|--3-----3---|--5-----5--(0)-----------|
E|-------------------|----------------|------------|--3-----3--(0)-----------|
        F                  C               G                F
e|--1---1--1---1-----|--------------|--3-----3--(0)--|--1--------1-----------|
B|--1---1--1---1-----|--5-----5-----|--3-----3--(0)--|--1--------1-----------|
G|--2---2--2---2-----|--5-----5-----|--4-----4--(0)--|--2--------2-----------|
D|--3---3--3---3-----|--5-----5-----|--5-----5--(0)--|--3--------3-----------|
A|--3---3--3---3-----|--3-----3-----|--5-----5--(0)--|--3--------3-----------|
E|--1---1--1---1-----|--------------|--3-----3--(0)--|--1--------1-----------|
         G7                C                 G              F
e|-----7----7------|----------------|--3-----3---(0)--|--1--1--1--1----------|
B|----6-----6------|--5-------5-----|--3-----3---(0)--|--1--1--1--1----------|
G|---7------7------|--5-------5-----|--4-----4---(0)--|--2--2--2--2----------|
D|--5-------5------|--5-------5-----|--5-----5---(0)--|--3--3--3--3----------|
A|-----------------|--3-------3-----|--5-----5---(0)--|--3--3--3--3----------|
E|-----------------|----------------|--3-----3---(0)--|--1--1--1--1----------|
        C               G               F        Bak to intro but with strum.
e|---------------|--3-------3------|-------1---------------------------------|
B|--5-----5------|--3-------3------|------1----------------------------------|
G|--5-----5------|--4-------4------|-----2-----------------------------------|
D|--5-----5------|--5-------5------|----3------------------------------------|
A|--3-----3------|--5-------5------|---3-------------------------------------|
E|---------------|--3-------3------|--1--------------------------------------|

Lyrics:
I haven't ever really found a place that I call home
I never stick around quite long enough to make it
I apologize that once again I'm not in love
But it's not as if I mind that your heart ain't exactly breaking
It's just a thought, only a thought

But if my life is for rent and I don't learn to buy
Well I deserve nothing more than I get
Cos nothing I have is truly mine

I've always thought that I would love to live by the sea
To travel the world alone and live more simply
I have no idea what's happened to that dream
Cos there's really nothing left here to stop me
It's just a thought, only a thought

But if my life is for rent and I don't learn to buy
Well I deserve nothing more than I get
Cos nothing I have is truly mine

While my heart is a shield and I won't let it down
While I am so afraid to fail so I won't even try
Well how can I say I'm alive

But if my life is for rent and I don't learn to buy
Well I deserve nothing more than I get
Cos nothing I have is truly mine
comments
print report bad tab
I want to post or [tab]
guest
You may want to rate the tab now too:
select rating
Please do not post tabs as comments. Select "correction" instead!