Oops, an error
Loading. Please wait.

Life For Rent Tab

version 2
version 2

Whole song

by Dido
542 views 1 this week
no commentswrite comment
1 2 3 4 5
3 more votes to show rating
add to favorites
launch autoscroll
font size
0
reset
how to read this tab
guitar tuner
Autoscroll
slow
fast
+/-
esc
set tempo
stop
Help us to improve Ultimate-Guitar.com Take our survey!
×
Author
Difficulty
Capo
novice
3rd fret
Tabbed & Arranged by: Josh Daley

Tuning: E A D G B E (Standard) - Capo 3



Intro &  1st Verse:

----------0---0------------1---1--|
----------1---1------------1---1--|
--------2-----2---------2------2--|
-----2--------2------3---------3--|
--0-----------0---3------------3--|
------------------1------------1--|



1st Pre-chorus:

-----------1---1------------3---3--|
--------3--3---3------------3---3--|
-----2---------2---------4------4--|
--0------------0------3---------3--|
--------------------------------5--|
-------------------3------------3--|



Chorus:

--0----3----1----|
--1----3----1----|
--0----0----2----|
--2----0----3----|
--3----2----3----|
-------3----1----|

--0----3----1---3--|
--1----3----1---0--|
--0----0----2---0--| x2
--2----0----3---0--|
--3----2----3---2--|
-------3----1---3--|

--0----3----1----|
--1----3----1----|
--0----0----2----|
--2----0----3----|
--3----2----3----|
-------3----1----|



2nd Verse:

--0----1----|
--1----1----|
--2----2----|
--2----3----|
--0----3----|
-------1----|



2nd Pre-chorus:

--1----3----|
--3----3----|
--2----4----|  (Crescendo)
--0----3----|
-------5----|
-------3----|



Bridge:

--0----3----1----3----|
--1----3----3----0----|
--0----0----2----0----|
--2----0----0----0----|
--3----2---------2----|
-------3---------3----|

--0----3----1----3----1----3----|
--1----3----3----0----3----0----|
--0----0----2----0----2----0----| ~ Play chorus x 1 ~
--2----0----0----0----0----0----|
--3----2---------2---------x----|
-------3---------3---------3----|



Outro chorus:

--0----3----1----|
--1----3----1----|
--0----0----2----|
--2----0----3----|
--3----2----3----|
-------3----1----|

--0----3----1---3--|
--1----3----1---0--|
--0----0----2---0--| x2
--2----0----3---0--|
--3----2----3---2--|
-------3----1---3--|

--0----3----1----|
--1----3----1----|
--0----0----2----| x3
--2----0----3----|
--3----2----3----|
-------3----1----|
Suggest correction
Give kudos to tab author, rate the tab!
1 2 3 4 5
comments
print report bad tab
guest
You may want to rate the tab now too:
select rating
Wanna post a correction for this tab? Suggest correction