Oops, an error
Loading. Please wait.

Sand In My Shoes Chords

version 2
version 2

Whole song

by Dido
23,323 views 24 this week
5 commentsread comments
1 2 3 4 5
x 13
add to favorites
launch autoscroll
font size
0
reset
transpose
0
reset
simplify chords
display chords
guitar tuner
Autoscroll
slow
fast
+/-
esc
set tempo
stop
Author
Capo
2nd fret
Strumming
There is no strumming pattern for this song yet. and get +5 IQ
Capo 2

[Intro] 
Bm Bm A E

[Verse]
  D/A              D/A              Asus2            Asus2
e|----------------|----------------|----------------|----------------|
B|------3-------3-|------3-------3-|------0-------0-|------0-------0-|
G|----2-------2---|----2-------2---|----2-------2---|----2-------2---|
D|--0-------0-----|--0-------0-----|--2-------2-----|--2-------2-----|
A|0-------0-------|0-------0-------|0-------0-------|0-------0-------|
E|----------------|----------------|----------------|----------------|

  Bm               Bm               F#m/C#           E/B
e|----------------|----------------|----------------|----------------|
B|------3-------3-|------3-------3-|------2-------2-|------0-------0-|
G|----4-------4---|----4-------4---|----2-------2---|----1-------1---|
D|--4-------4-----|--4-------4-----|--4-------4-----|--2-------2-----|
A|2-------2-------|2-------2-------|4-------4-------|2-------2-------|
E|----------------|----------------|----------------|----------------|
  time_____        I     don't have time____

[Chorus]
  Bm               Bm               Asus2            E/B
e|----------------|----------------|----------------|----------------|
B|------3-------3-|------3-------3-|------0-------0-|------0-------0-|
G|----4-------4---|----4-------4---|----2-------2---|----1-------1---|
D|--4-------4-----|--4-------4-----|--2-------2-----|--2-------2-----|
A|2-------2-------|2-------2-------|0-------0-------|2-------2-------|
E|----------------|----------------|----------------|----------------|

  D/A              A                E/B              E/B
e|----------------|----------------|----------------|----------------|
B|------3-------3-|------2-------2-|------0-------0-|------0-------0-|
G|----2-------2---|----2-------2---|----1-------1---|----1-------1---|
D|--0-------0-----|--0-------0-----|--2-------2-----|--2-------2-----|
A|0-------0-------|0-------0-------|2-------2-------|2-------2-------|
E|----------------|----------------|----------------|----------------|
  I___________    want to see you again

[Bridge]
  Bm               Bm               Asus2            E/B
e|----------------|----------------|----------------|----------------|
B|------3-------3-|------3-------3-|------0-------0-|------0-------0-|
G|----4-------4---|----4-------4---|----2-------2---|----1-------1---|
D|--4-------4-----|--4-------4-----|--2-------2-----|--2-------2-----|
A|2-------2-------|2-------2-------|0-------0-------|2-------2-------|
E|----------------|----------------|----------------|----------------|
Suggest correction
comments
print report bad tab
5 comments total. Showing first comments.
0 reply
JonPebble 1,938 Nov 23, 2003 07:00 PM

That's odd - I could have sworn that I submitted this as a "tab" rather than as "chords".

0 reply
mapeterz 537 Dec 09, 2007 08:47 AM

well this is slightly wrong.. try moving the first chord you wrote down it's not those strings you play.. you play D G B
E strings and the E string is open and the chord shape is the same!

0 reply
QXD-me 10 Apr 15, 2008 11:49 AM

I don't think the intro goes A E, I think it either goes A A or A Amaj7

guest
You may want to rate the tab now too:
select rating
Wanna post a correction for this tab? Suggest correction