Oops, an error
Loading. Please wait.
We have Chord Pro version of White Flag.
It's the closest thing you can get to the original song and it has interactive parts. Check out the tab »
×
by Dido
1,435 views 1 this week
1 commentread comment
1 2 3 4 5
1 last vote to show rating
add to favorites
×
Save as Personal and add changes to this tab that will be seen only by you. Learn more ›
×
You can save this tab as Personal to edit and correct it or add notes. All changes will be seen only by you. Learn more »
launch autoscroll
font size
0
reset
guitar tuner
edit
Autoscroll
slow
fast
+/-
esc
set tempo
stop
Author
Difficulty
intermediate
Dido - White Flag - Bass

Standard Tuning

Intro

G -----------|-----------|-----------|-----------|
D -----------|-----------|-----------|-----------|
A -----------|-----------|-----------|-----------|
E -1-1-----1-|-1-1-----1-|-5-5-----5-|-5-5---5-5-|

Verse (I know you think that...)

G -----------|-----------|-----------|-----------|
D -----------|-----------|-----------|-----------|   x2
A -5-5-----5-|-5-5-----5-|-----------|-----------|
E -----------|-----------|-5-5-----5-|-5-5---5-5-|

G -----------|-----------|-----------|-----------|
D -----------|-----------|-----------|-----------|
A -3-3-----3-|-3-3-----3-|-----------|-----------|
E -----------|-----------|-3-3-----3-|-5-5---5-5-|

Chorus (But I will go down...)

G -----------|-----------|-----------|-----------|
D -----------|-----------|-----------|-----------|
A -1-1-----1-|-----------|-----------|-5-5---5-5-|
E -----------|-1-1-----1-|-3-3-----3-|-----------|

G -----------|-----------|-----------|-----------|
D -----------|-----------|-----------|-----------|
A -1-1-----1-|-----------|-3-3-----3-|-----------|
E -----------|-1-1-----1-|-----------|-3-3---3-3-|

Verse (I know I left too much mess...)

G -----------|-----------|-----------|-----------|
D -----------|-----------|-----------|-----------|   x2
A -5-5-----5-|-5-5-----5-|-----------|-----------|
E -----------|-----------|-5-5-----5-|-5-5---5-5-|

G -----------|-----------|-----------|-----------|
D -----------|-----------|-----------|-----------|
A -3-3-----3-|-3-3-----3-|-----------|-----------|
E -----------|-----------|-3-3-----3-|-5-5---5-5-|

Chorus (But I will go down...)

G -----------|-----------|-----------|-----------|
D -----------|-----------|-----------|-----------|
A -1-1-----1-|-----------|-----------|-5-5---5-5-|
E -----------|-1-1-----1-|-3-3-----3-|-----------|

G -----------|-----------|-----------|-----------|
D -----------|-----------|-----------|-----------|
A -1-1-----1-|-----------|-3-3-----3-|-----------|
E -----------|-1-1-----1-|-----------|-3-3---3-3-|

Bridge (And when we meet...)

G -----------|-----------|-----------|-----------|
D -----------|-----------|-----------|-----------|
A -----------|-----------|-----------|-----------|
E -1-1-----1-|-1-1-----1-|-5-5-----5-|-5-5---5-5-|

G -----------|-----------|-----------|-----------|
D -----------|-----------|-----------|-----------|
A -----------|-----------|-3-3-----3-|-3-3---3-3-|
E -3-3-----3-|-3-3-----3-|-----------|-----------|

Chorus (I will go down...)

G -----------|-----------|-----------|-----------|
D -----------|-----------|-----------|-----------|
A -1-1-----1-|-----------|-----------|-5-5---5-5-|
E -----------|-1-1-----1-|-3-3-----3-|-----------|

G -----------|-----------|-----------|-----------|
D -----------|-----------|-----------|-----------|
A -1-1-----1-|-----------|-3-3-----3-|-----------|
E -----------|-1-1-----1-|-----------|-3-3---3-3-|

                         x2

Outro (I will go down...)

G -----------|-----------|-----------|-----------|
D -----------|-----------|-----------|-----------|
A -1---------|-----------|-----------|-5---------|
E -----------|-1---------|-3---------|-----------|

G -----------|-----------|-----------|-----------|
D -----------|-----------|-----------|-----------|
A -1---------|-----------|-3---------|-----------|
E -----------|-1---------|-----------|-3---------|


Thanks for using my version

            
            
Suggest correction
Creating personal tab
Creating personal tab
You can edit any tab online and save it as your Personal.

You can edit, replace or remove any tab part or add personal notes – all changes will be seen only by you.

Personal tabs can be accessed anytime from any device, even offline.
Learn more »
Give kudos to tab author, rate the tab!
1 2 3 4 5
comments
print report bad tab
1 comment total.
0 reply
tarikaiesec 12 Jun 10, 2016 03:44 PM

very accurate tab, thank you.
Auto-scroll this page and you play along with the song, enjoy!!

guest
You may want to rate the tab now too:
select rating
Wanna post a correction for this tab? Suggest correction