Oops, an error
Loading. Please wait.

Palzlied chords

version 3
version 3

Whole song

421 views 3 this week
no commentswrite comment
1 2 3 4 5
x 3
add to favorites
×
Save as Personal and add changes to this tab that will be seen only by you. Learn more ›
×
You can save this tab as Personal to edit and correct it or add notes. All changes will be seen only by you. Learn more »
launch autoscroll
font size
0
reset
transpose
0
reset
simplify chords
display chords
guitar tuner
edit
Autoscroll
slow
fast
+/-
esc
set tempo
stop
Author
Strumming
There is no strumming pattern for this song yet. and get +5 IQ
Palzlied - Die anonyme Giddarischde


[Legend]
 
Cm9/B   X20010
Fmaj7   XX3210
Dm      XX0231
Asus2   X02200


[Intro]

e|----------------------------------------------0------0---0----0--0--------0--------------------|
B|-------------------------------------1----1---1------1---1----1--1--------1--------------------|
G|------0------------0-----------------0----0---2------2---0h2--2--0--------0--------------------|
D|-0h2-2-- 2----0h2-2---2-------2------2----0---2--0-2-3---3----3--3---0----2--------------------|
A|-------3------------3-------3-----3--3--2-2-0-0------------------------3--3--------------------|
E|-----------------------------------------------------------------------------------------------|

e|----------------------------------------------0------0---0----0--0---------3--1--0--0--0----------|
B|-------------------------------------1----1---1------1---1----1--1---------0--0--0--0--1----------|
G|------0------------0-----------------0----0---2------2---0h2--2--0---------0--0--0--0--0----------|
D|-0h2-2-- 2----0h2-2---2-------2------2----0---2--0-2-3---3----3--3---0-----0--0--0--0--2----------|
A|-------3------------3-------3-----3--3--2-2-0-0----------------------------2--2--2--2--3----------|
E|------------------------------------------------------------------------3--3--3--3--3-------------|
                                            

                                            
[Verse 1]

          C                                Cm9/B   Am
Warschd du ä mol uff de Kalmit odder uff de Dahner Heh
                      Fmaj7                               C
Hoscht du ä mol omme Herbschdag moiens die Newwel steige seh 
 C                                              Cm9/B  Am
Bischt du Barfuss dursch die Wies gerennt oder unner Bäääm
                          Fm7                    G
Disch bloß hie gelegt die Aage zu, un äfach bloß geträääämt


[Refrain]

         Fmaj7                         C
Des wär alles nix besondres sagscht du un du mischt jetzt geh
         Dm                         C
Weil es gäb außer de Palz jo a noch onneres  zu seh 
            Fmaj7                                        C    Cm9/B    Am Asus2 Am Asus2 Am Asus2 Am
Un sischer hoscht du Rescht wann du sagscht dass ders annerschdwo a gfallt
       Fmaj7           C                 G             C
Awwer annerschdwu is annerschd und halt net wie in de Palz. 


[Verse 2]

            C                                  Cm9/B    Am
Warschd im Summer an em Baggerloch ,hot disch e Schnook gejuckt
                       Fmaj7                       C
Un du hoscht de liewe lange Daag bloß in die Luft geguggt
  C                                          Cm9/B   Am
Bisch du owends mit em Sunnebrand uff doim Balkon gelähh
                      Fmaj7                         G
Un du hasch beim Sunneunnergang die Schwalwe fliege seh


[Refrain]

         Fmaj7                         C
Des wär alles nix besondres sagscht du un du mischt jetzt geh
         Dm                         C
Weil es gäb außer de Palz jo a noch anneres  zu seh 
            Fmaj7                                        C    Cm9/B    Am Asus2 Am Asus2 Am Asus2 Am
Un sischer hoscht du Rescht wann du sagscht dass ders annerschdwo a gfallt
     Fmaj7              C                 G             C
Awwer annerschdwu is annerschd und halt net wie in de Palz. 


[Verse 3]

           C                                       Cm9/B       Am
Kennsch du Trippstadt, Hertlingshause, Grünstadt, Eiseberg un Forscht
                     Fmaj7                       C
Hasch du ä mol an äm Woifescht denne Leit dort zugehorscht 
    C                                              Cm9/B  Am
Drinksch du gern emohl en Schorle und ischd gern a Lewwerworscht
                        Fmaj7                             G
Gehsch du öfders in die Volle und hoschd mehr wie annere Doooorscht 


[Refrain]

         Fmaj7                         C
Des wär alles nix besondres sagscht du un du mischt jetzt geh
         Dm                         C
Weil es gäb außer de Palz jo a noch anneres  zu seh 
            Fmaj7                                        C    Cm9/B    Am Asus2 Am Asus2 Am Asus2 Am
Un sischer hoscht du Rescht wann du sagscht dass ders annerschdwo a gfallt
       Fmaj7            C                 G             C
Awwer annerschdwu is annerschd und halt net wie in de Palz. 


            
            
Suggest correction
Creating personal tab
Creating personal tab
You can edit any tab online and save it as your Personal.

You can edit, replace or remove any tab part or add personal notes – all changes will be seen only by you.

Personal tabs can be accessed anytime from any device, even offline.
Learn more »
Give kudos to tab author, rate the tab!
1 2 3 4 5
comments
print report bad tab
guest
You may want to rate the tab now too:
select rating
Wanna post a correction for this tab? Suggest correction