Oops, an error
Loading. Please wait.

Rich Bitch bass

version 1
version 1

Whole song

Interactive

3,213 views 3 this week
no commentswrite comment
1 2 3 4 5
2 more votes to show rating
add to favorites
×
Save as Personal and add changes to this tab that will be seen only by you. Learn more ›
×
You can save this tab as Personal to edit and correct it or add notes. All changes will be seen only by you. Learn more »
launch autoscroll
font size
0
reset
guitar tuner
edit
Autoscroll
slow
fast
+/-
esc
set tempo
stop
Die Antwoord - Rich Bitch

Just the different riffs, not in a specific order. Figure it out, it's easy.

Please comment and rate! :)

Intro (Not bass, but you can still play along for fun):

G|-11-13-10-12-12-10-12------------------------------------------------------|
D|------------------------13-15-10-12-13-12-13-------------------------------|
A|---------------------------------------------------------------------------|
E|---------------------------------------------------------------------------|

Verse:

G|---------------------------------------------------------------------------|
D|-5-6-3-5-------------------5-6-3-5-----------------------------------------|
A|-----------6-8-3-6-5-----------------6-8-3-5-6-5-3-------------------------|
E|---------------------------------------------------------------------------|

Chorus:

G|---------------------------------------------------------------------------|
D|-5-6-3-5-------------------5-6-3-5-----------------------------------------|
A|-----------6-8-3-5-6-5-3-------------6-8-3-5-6-5-3-------------------------|
E|---------------------------------------------------------------------------|

Sometimes there's a break in the song:

G|---------------------------------------------------------------------------|
D|-5-6-3-5-------------------------------------------------------------------|
A|------------3~-------------------------------------------------------------|
E|---------------------------------------------------------------------------|

            
            
Suggest correction
Creating personal tab
Creating personal tab
You can edit any tab online and save it as your Personal.

You can edit, replace or remove any tab part or add personal notes – all changes will be seen only by you.

Personal tabs can be accessed anytime from any device, even offline.
Learn more »
Give kudos to tab author, rate the tab!
1 2 3 4 5
comments
print report bad tab
guest
You may want to rate the tab now too:
select rating
Wanna post a correction for this tab? Suggest correction